  0
SECTION
  2
HEADER
  9
$ACADVER
  1
AC1024
  9
$ACADMAINTVER
 70
     6
  9
$DWGCODEPAGE
  3
UNDEFINED
  9
$INSBASE
 10
0.0
 20
0.0
 30
0.0
  9
$EXTMIN
 10
1.000000000000000E+20
 20
1.000000000000000E+20
 30
1.000000000000000E+20
  9
$EXTMAX
 10
-1.000000000000000E+20
 20
-1.000000000000000E+20
 30
-1.000000000000000E+20
  9
$LIMMIN
 10
0.0
 20
0.0
  9
$LIMMAX
 10
12.0
 20
9.0
  9
$ORTHOMODE
 70
     0
  9
$REGENMODE
 70
     1
  9
$FILLMODE
 70
     1
  9
$QTEXTMODE
 70
     0
  9
$MIRRTEXT
 70
     1
  9
$LTSCALE
 40
1.0
  9
$ATTMODE
 70
     1
  9
$TEXTSIZE
 40
0.2
  9
$TRACEWID
 40
0.05
  9
$TEXTSTYLE
  7
Standard
  9
$CLAYER
  8
0
  9
$CELTYPE
  6
ByLayer
  9
$CECOLOR
 62
   256
  9
$CELTSCALE
 40
1.0
  9
$DISPSILH
 70
     0
  9
$DIMSCALE
 40
1.0
  9
$DIMASZ
 40
0.18
  9
$DIMEXO
 40
0.0625
  9
$DIMDLI
 40
0.38
  9
$DIMRND
 40
0.0
  9
$DIMDLE
 40
0.0
  9
$DIMEXE
 40
0.18
  9
$DIMTP
 40
0.0
  9
$DIMTM
 40
0.0
  9
$DIMTXT
 40
0.18
  9
$DIMCEN
 40
0.09
  9
$DIMTSZ
 40
0.0
  9
$DIMTOL
 70
     0
  9
$DIMLIM
 70
     0
  9
$DIMTIH
 70
     1
  9
$DIMTOH
 70
     1
  9
$DIMSE1
 70
     0
  9
$DIMSE2
 70
     0
  9
$DIMTAD
 70
     0
  9
$DIMZIN
 70
     0
  9
$DIMBLK
  1

  9
$DIMASO
 70
     1
  9
$DIMSHO
 70
     1
  9
$DIMPOST
  1

  9
$DIMAPOST
  1

  9
$DIMALT
 70
     0
  9
$DIMALTD
 70
     2
  9
$DIMALTF
 40
25.4
  9
$DIMLFAC
 40
1.0
  9
$DIMTOFL
 70
     0
  9
$DIMTVP
 40
0.0
  9
$DIMTIX
 70
     0
  9
$DIMSOXD
 70
     0
  9
$DIMSAH
 70
     0
  9
$DIMBLK1
  1

  9
$DIMBLK2
  1

  9
$DIMSTYLE
  2
Standard
  9
$DIMCLRD
 70
     0
  9
$DIMCLRE
 70
     0
  9
$DIMCLRT
 70
     0
  9
$DIMTFAC
 40
1.0
  9
$DIMGAP
 40
0.09
  9
$DIMJUST
 70
     0
  9
$DIMSD1
 70
     0
  9
$DIMSD2
 70
     0
  9
$DIMTOLJ
 70
     1
  9
$DIMTZIN
 70
     0
  9
$DIMALTZ
 70
     0
  9
$DIMALTTZ
 70
     0
  9
$DIMUPT
 70
     0
  9
$DIMDEC
 70
     4
  9
$DIMTDEC
 70
     4
  9
$DIMALTU
 70
     2
  9
$DIMALTTD
 70
     2
  9
$DIMTXSTY
  7
Standard
  9
$DIMAUNIT
 70
     0
  9
$DIMADEC
 70
     0
  9
$DIMALTRND
 40
0.0
  9
$DIMAZIN
 70
     0
  9
$DIMDSEP
 70
    46
  9
$DIMATFIT
 70
     3
  9
$DIMFRAC
 70
     0
  9
$DIMLDRBLK
  1

  9
$DIMLUNIT
 70
     2
  9
$DIMLWD
 70
    -2
  9
$DIMLWE
 70
    -2
  9
$DIMTMOVE
 70
     0
  9
$DIMFXL
 40
1.0
  9
$DIMFXLON
 70
     0
  9
$DIMJOGANG
 40
0.7853981633974483
  9
$DIMTFILL
 70
     0
  9
$DIMTFILLCLR
 70
     0
  9
$DIMARCSYM
 70
     0
  9
$DIMLTYPE
  6

  9
$DIMLTEX1
  6

  9
$DIMLTEX2
  6

  9
$DIMTXTDIRECTION
 70
     0
  9
$LUNITS
 70
     2
  9
$LUPREC
 70
     4
  9
$SKETCHINC
 40
0.1
  9
$FILLETRAD
 40
0.5
  9
$AUNITS
 70
     0
  9
$AUPREC
 70
     0
  9
$MENU
  1
.
  9
$ELEVATION
 40
0.0
  9
$PELEVATION
 40
0.0
  9
$THICKNESS
 40
0.0
  9
$LIMCHECK
 70
     0
  9
$CHAMFERA
 40
0.5
  9
$CHAMFERB
 40
0.5
  9
$CHAMFERC
 40
1.0
  9
$CHAMFERD
 40
0.0
  9
$SKPOLY
 70
     0
  9
$TDCREATE
 40
2459030.390358796
  9
$TDUCREATE
 40
2459030.72369213
  9
$TDUPDATE
 40
2459030.390370359
  9
$TDUUPDATE
 40
2459030.723703704
  9
$TDINDWG
 40
0.0000000116
  9
$TDUSRTIMER
 40
0.0000000116
  9
$USRTIMER
 70
     1
  9
$ANGBASE
 50
0.0
  9
$ANGDIR
 70
     0
  9
$PDMODE
 70
     0
  9
$PDSIZE
 40
0.0
  9
$PLINEWID
 40
0.0
  9
$SPLFRAME
 70
     0
  9
$SPLINETYPE
 70
     6
  9
$SPLINESEGS
 70
     8
  9
$HANDSEED
  5
49E
  9
$SURFTAB1
 70
     6
  9
$SURFTAB2
 70
     6
  9
$SURFTYPE
 70
     6
  9
$SURFU
 70
     6
  9
$SURFV
 70
     6
  9
$UCSBASE
  2

  9
$UCSNAME
  2

  9
$UCSORG
 10
0.0
 20
0.0
 30
0.0
  9
$UCSXDIR
 10
1.0
 20
0.0
 30
0.0
  9
$UCSYDIR
 10
0.0
 20
1.0
 30
0.0
  9
$UCSORTHOREF
  2

  9
$UCSORTHOVIEW
 70
     0
  9
$UCSORGTOP
 10
0.0
 20
0.0
 30
0.0
  9
$UCSORGBOTTOM
 10
0.0
 20
0.0
 30
0.0
  9
$UCSORGLEFT
 10
0.0
 20
0.0
 30
0.0
  9
$UCSORGRIGHT
 10
0.0
 20
0.0
 30
0.0
  9
$UCSORGFRONT
 10
0.0
 20
0.0
 30
0.0
  9
$UCSORGBACK
 10
0.0
 20
0.0
 30
0.0
  9
$PUCSBASE
  2

  9
$PUCSNAME
  2

  9
$PUCSORG
 10
0.0
 20
0.0
 30
0.0
  9
$PUCSXDIR
 10
1.0
 20
0.0
 30
0.0
  9
$PUCSYDIR
 10
0.0
 20
1.0
 30
0.0
  9
$PUCSORTHOREF
  2

  9
$PUCSORTHOVIEW
 70
     0
  9
$PUCSORGTOP
 10
0.0
 20
0.0
 30
0.0
  9
$PUCSORGBOTTOM
 10
0.0
 20
0.0
 30
0.0
  9
$PUCSORGLEFT
 10
0.0
 20
0.0
 30
0.0
  9
$PUCSORGRIGHT
 10
0.0
 20
0.0
 30
0.0
  9
$PUCSORGFRONT
 10
0.0
 20
0.0
 30
0.0
  9
$PUCSORGBACK
 10
0.0
 20
0.0
 30
0.0
  9
$USERI1
 70
     0
  9
$USERI2
 70
     0
  9
$USERI3
 70
     0
  9
$USERI4
 70
     0
  9
$USERI5
 70
     0
  9
$USERR1
 40
0.0
  9
$USERR2
 40
0.0
  9
$USERR3
 40
0.0
  9
$USERR4
 40
0.0
  9
$USERR5
 40
0.0
  9
$WORLDVIEW
 70
     1
  9
$SHADEDGE
 70
     3
  9
$SHADEDIF
 70
    70
  9
$TILEMODE
 70
     1
  9
$MAXACTVP
 70
    64
  9
$PINSBASE
 10
0.0
 20
0.0
 30
0.0
  9
$PLIMCHECK
 70
     0
  9
$PEXTMIN
 10
1.000000000000000E+20
 20
1.000000000000000E+20
 30
1.000000000000000E+20
  9
$PEXTMAX
 10
-1.000000000000000E+20
 20
-1.000000000000000E+20
 30
-1.000000000000000E+20
  9
$PLIMMIN
 10
0.0
 20
0.0
  9
$PLIMMAX
 10
12.0
 20
9.0
  9
$UNITMODE
 70
     0
  9
$VISRETAIN
 70
     1
  9
$PLINEGEN
 70
     0
  9
$PSLTSCALE
 70
     1
  9
$TREEDEPTH
 70
  3020
  9
$CMLSTYLE
  2
Standard
  9
$CMLJUST
 70
     0
  9
$CMLSCALE
 40
1.0
  9
$PROXYGRAPHICS
 70
     1
  9
$MEASUREMENT
 70
     0
  9
$CELWEIGHT
370
    -1
  9
$ENDCAPS
280
     0
  9
$JOINSTYLE
280
     0
  9
$LWDISPLAY
290
     1
  9
$INSUNITS
 70
     1
  9
$HYPERLINKBASE
  1

  9
$STYLESHEET
  1

  9
$XEDIT
290
     1
  9
$CEPSNTYPE
380
     0
  9
$PSTYLEMODE
290
     1
  9
$FINGERPRINTGUID
  2
{5AFA53AC-0334-4AD5-0E1F-B31F93D521D2}
  9
$VERSIONGUID
  2
{FAEB1C32-E019-11D5-929B-00C0DF256EC4}
  9
$EXTNAMES
290
     1
  9
$PSVPSCALE
 40
0.0
  9
$OLESTARTUP
290
     0
  9
$SORTENTS
280
   127
  9
$INDEXCTL
280
     0
  9
$HIDETEXT
280
     1
  9
$XCLIPFRAME
280
     2
  9
$HALOGAP
280
     0
  9
$OBSCOLOR
 70
   257
  9
$OBSLTYPE
280
     0
  9
$INTERSECTIONDISPLAY
280
     0
  9
$INTERSECTIONCOLOR
 70
   257
  9
$DIMASSOC
280
     2
  9
$PROJECTNAME
  1

  9
$CAMERADISPLAY
290
     0
  9
$LENSLENGTH
 40
50.0
  9
$CAMERAHEIGHT
 40
0.0
  9
$STEPSPERSEC
 40
2.0
  9
$STEPSIZE
 40
6.0
  9
$3DDWFPREC
 40
2.0
  9
$PSOLWIDTH
 40
0.25
  9
$PSOLHEIGHT
 40
4.0
  9
$LOFTANG1
 40
1.570796326794897
  9
$LOFTANG2
 40
1.570796326794897
  9
$LOFTMAG1
 40
0.0
  9
$LOFTMAG2
 40
0.0
  9
$LOFTPARAM
 70
     7
  9
$LOFTNORMALS
280
     1
  9
$LATITUDE
 40
37.795
  9
$LONGITUDE
 40
-122.394
  9
$NORTHDIRECTION
 40
0.0
  9
$TIMEZONE
 70
 -8000
  9
$LIGHTGLYPHDISPLAY
280
     1
  9
$TILEMODELIGHTSYNCH
280
     1
  9
$CMATERIAL
347
3C
  9
$SOLIDHIST
280
     1
  9
$SHOWHIST
280
     1
  9
$DWFFRAME
280
     2
  9
$DGNFRAME
280
     2
  9
$REALWORLDSCALE
290
     1
  9
$INTERFERECOLOR
 62
   256
  9
$CSHADOW
280
     0
  9
$SHADOWPLANELOCATION
 40
0.0
  0
ENDSEC
  0
SECTION
  2
CLASSES
  0
CLASS
  1
ACDBDICTIONARYWDFLT
  2
AcDbDictionaryWithDefault
  3
ObjectDBX Classes
 90
        0
 91
        4
280
     0
281
     0
  0
CLASS
  1
VISUALSTYLE
  2
AcDbVisualStyle
  3
ObjectDBX Classes
 90
     4095
 91
        4
280
     0
281
     0
  0
CLASS
  1
MATERIAL
  2
AcDbMaterial
  3
ObjectDBX Classes
 90
     1153
 91
        4
280
     0
281
     0
  0
CLASS
  1
SUN
  2
AcDbSun
  3
SCENEOE
 90
     1024
 91
        4
280
     0
281
     0
  0
ENDSEC
  0
SECTION
  2
TABLES
  0
TABLE
  2
VPORT
  5
8
330
0
100
AcDbSymbolTable
 70
     1
  0
VPORT
  5
29
330
8
100
AcDbSymbolTableRecord
100
AcDbViewportTableRecord
  2
*Active
 70
     0
 10
0.0
 20
0.0
 11
1.0
 21
1.0
 12
0.0
 22
0.0
 13
0.0
 23
0.0
 14
0.5
 24
0.5
 15
0.5
 25
0.5
 16
0.0
 26
0.0
 36
1.0
 17
25.77777777777778
 27
5.5
 37
0.0
 40
11.0
 41
1.545454545454545
 42
50.0
 43
0.0
 44
0.0
 50
0.0
 51
0.0
 71
     0
 72
   100
 73
     1
 74
     3
 75
     0
 76
     0
 77
     0
 78
     0
281
     0
 65
     1
110
0.0
120
0.0
130
0.0
111
1.0
121
0.0
131
0.0
112
0.0
122
1.0
132
0.0
 79
     0
146
0.0
 60
     3
 61
     5
292
     1
282
     1
141
0.0
142
0.0
 63
   250
361
3F
  0
ENDTAB
  0
TABLE
  2
LTYPE
  5
5
330
0
100
AcDbSymbolTable
 70
     1
  0
LTYPE
  5
14
330
5
100
AcDbSymbolTableRecord
100
AcDbLinetypeTableRecord
  2
ByBlock
 70
     0
  3

 72
    65
 73
     0
 40
0.0
  0
LTYPE
  5
15
330
5
100
AcDbSymbolTableRecord
100
AcDbLinetypeTableRecord
  2
ByLayer
 70
     0
  3

 72
    65
 73
     0
 40
0.0
  0
LTYPE
  5
16
330
5
100
AcDbSymbolTableRecord
100
AcDbLinetypeTableRecord
  2
Continuous
 70
     0
  3
Solid line
 72
    65
 73
     0
 40
0.0
  0
ENDTAB
  0
TABLE
  2
LAYER
  5
2
330
0
100
AcDbSymbolTable
 70
     3
  0
LAYER
  5
10
330
2
100
AcDbSymbolTableRecord
100
AcDbLayerTableRecord
  2
0
 70
     0
 62
     7
  6
Continuous
370
    -3
390
F
347
3E
  0
LAYER
  5
40
330
2
100
AcDbSymbolTableRecord
100
AcDbLayerTableRecord
  2
CADs
 70
     0
 62
     7
  6
Continuous
370
    -3
390
F
347
3E
  0
LAYER
  5
3D0
330
2
100
AcDbSymbolTableRecord
100
AcDbLayerTableRecord
  2
Information
 70
     0
 62
     7
  6
Continuous
370
    -3
390
F
347
3E
  0
ENDTAB
  0
TABLE
  2
STYLE
  5
3
330
0
100
AcDbSymbolTable
 70
     1
  0
STYLE
  5
11
330
3
100
AcDbSymbolTableRecord
100
AcDbTextStyleTableRecord
  2
Standard
 70
     0
 40
0.0
 41
1.0
 50
0.0
 71
     0
 42
0.2
  3
txt
  4

  0
ENDTAB
  0
TABLE
  2
VIEW
  5
6
330
0
100
AcDbSymbolTable
 70
     0
  0
ENDTAB
  0
TABLE
  2
UCS
  5
7
330
0
100
AcDbSymbolTable
 70
     0
  0
ENDTAB
  0
TABLE
  2
APPID
  5
9
330
0
100
AcDbSymbolTable
 70
     1
  0
APPID
  5
12
330
9
100
AcDbSymbolTableRecord
100
AcDbRegAppTableRecord
  2
ACAD
 70
     0
  0
ENDTAB
  0
TABLE
  2
DIMSTYLE
  5
A
330
0
100
AcDbSymbolTable
 70
     1
100
AcDbDimStyleTable
  0
DIMSTYLE
105
27
330
A
100
AcDbSymbolTableRecord
100
AcDbDimStyleTableRecord
  2
Standard
 70
     0
178
     0
340
11
  0
ENDTAB
  0
TABLE
  2
BLOCK_RECORD
  5
1
330
0
100
AcDbSymbolTable
 70
     3
  0
BLOCK_RECORD
  5
1F
330
1
100
AcDbSymbolTableRecord
100
AcDbBlockTableRecord
  2
*Model_Space
340
22
 70
     0
280
     1
281
     0
  0
BLOCK_RECORD
  5
1B
330
1
100
AcDbSymbolTableRecord
100
AcDbBlockTableRecord
  2
*Paper_Space
340
1E
 70
     0
280
     1
281
     0
  0
BLOCK_RECORD
  5
23
330
1
100
AcDbSymbolTableRecord
100
AcDbBlockTableRecord
  2
*Paper_Space0
340
26
 70
     0
280
     1
281
     0
  0
BLOCK_RECORD
  5
3DE
330
1
100
AcDbSymbolTableRecord
100
AcDbBlockTableRecord
  2
block 2
340
0
102
{BLKREFS
331
3DF
102
}
 70
     0
280
     1
281
     0
  0
BLOCK_RECORD
  5
421
330
1
100
AcDbSymbolTableRecord
100
AcDbBlockTableRecord
  2
block 3
340
0
102
{BLKREFS
331
422
102
}
 70
     0
280
     1
281
     0
  0
ENDTAB
  0
ENDSEC
  0
SECTION
  2
BLOCKS
  0
BLOCK
  5
20
330
1F
100
AcDbEntity
  8
0
100
AcDbBlockBegin
  2
*Model_Space
 70
     0
 10
0.0
 20
0.0
 30
0.0
  3
*Model_Space
  1

  0
ENDBLK
  5
21
330
1F
100
AcDbEntity
  8
0
100
AcDbBlockEnd
  0
BLOCK
  5
1C
330
1B
100
AcDbEntity
 67
     1
  8
0
100
AcDbBlockBegin
  2
*Paper_Space
 70
     0
 10
0.0
 20
0.0
 30
0.0
  3
*Paper_Space
  1

  0
ENDBLK
  5
1D
330
1B
100
AcDbEntity
 67
     1
  8
0
100
AcDbBlockEnd
  0
BLOCK
  5
24
330
23
100
AcDbEntity
  8
0
100
AcDbBlockBegin
  2
*Paper_Space0
 70
     0
 10
0.0
 20
0.0
 30
0.0
  3
*Paper_Space0
  1

  0
ENDBLK
  5
25
330
23
100
AcDbEntity
  8
0
100
AcDbBlockEnd
  0
BLOCK
  5
3E0
330
3DE
100
AcDbEntity
  8
0
100
AcDbBlockBegin
  2
block 2
 70
     0
 10
0.0
 20
0.0
 30
0.0
  3
block 2
  1

  0
SPLINE
  5
3E2
330
3DE
100
AcDbEntity
  8
Information
370
     0
100
AcDbSpline
210
0.0
220
0.0
230
1.0
 70
    11
 71
     3
 72
    71
 73
    67
 74
     0
 42
0.0000000001
 43
0.0000000001
 12
1.0
 22
0.0
 32
0.0
 13
1.0
 23
0.0
 33
0.0
 40
0.0
 40
0.0
 40
0.0
 40
0.0
 40
1.0
 40
1.0
 40
1.0
 40
2.0
 40
2.0
 40
2.0
 40
3.0
 40
3.0
 40
3.0
 40
4.0
 40
4.0
 40
4.0
 40
5.0
 40
5.0
 40
5.0
 40
6.0
 40
6.0
 40
6.0
 40
7.0
 40
7.0
 40
7.0
 40
8.0
 40
8.0
 40
8.0
 40
9.0
 40
9.0
 40
9.0
 40
10.0
 40
10.0
 40
10.0
 40
11.0
 40
11.0
 40
11.0
 40
12.0
 40
12.0
 40
12.0
 40
13.0
 40
13.0
 40
13.0
 40
14.0
 40
14.0
 40
14.0
 40
15.0
 40
15.0
 40
15.0
 40
16.0
 40
16.0
 40
16.0
 40
17.0
 40
17.0
 40
17.0
 40
18.0
 40
18.0
 40
18.0
 40
19.0
 40
19.0
 40
19.0
 40
20.0
 40
20.0
 40
20.0
 40
21.0
 40
21.0
 40
21.0
 40
22.0
 40
22.0
 40
22.0
 40
22.0
 10
33.65727885617805
 20
0.2866214949349594
 30
0.0
 10
33.65727885617805
 20
0.2619636485619594
 30
0.0
 10
33.64950071384611
 20
0.2421683984666743
 30
0.0
 10
33.63206060420568
 20
0.2224406844308204
 30
0.0
 10
33.63206060420568
 20
0.2224406844308204
 30
0.0
 10
33.63076736051486
 20
0.2209778821226993
 30
0.0
 10
33.63076736051486
 20
0.2209778821226993
 30
0.0
 10
33.63076736051486
 20
0.2209778821226993
 30
0.0
 10
33.61919282948126
 20
0.2311657685320622
 30
0.0
 10
33.61919282948126
 20
0.2311657685320622
 30
0.0
 10
33.61919282948126
 20
0.2311657685320622
 30
0.0
 10
33.62053636598236
 20
0.2326371924648103
 30
0.0
 10
33.62053636598236
 20
0.2326371924648103
 30
0.0
 10
33.63669329049389
 20
0.2503330769685211
 30
0.0
 10
33.64298707645624
 20
0.265656577768166
 30
0.0
 10
33.64298707645624
 20
0.2872911077793358
 30
0.0
 10
33.64298707645624
 20
0.309378273082378
 30
0.0
 10
33.63117113993389
 20
0.3248037964398615
 30
0.0
 10
33.61425407551958
 20
0.3248037964398615
 30
0.0
 10
33.61425407551958
 20
0.3248037964398615
 30
0.0
 10
33.61381437266459
 20
0.3248037964398615
 30
0.0
 10
33.61381437266459
 20
0.3248037964398615
 30
0.0
 10
33.59922514689389
 20
0.3248037964398615
 30
0.0
 10
33.58996839594207
 20
0.3180185778749597
 30
0.0
 10
33.58283400158054
 20
0.2822259033233523
 30
0.0
 10
33.57511908449568
 20
0.2437260386454909
 30
0.0
 10
33.56196248534709
 20
0.2280231863631899
 30
0.0
 10
33.53741815703138
 20
0.2280231863631899
 30
0.0
 10
33.53741815703138
 20
0.2280231863631899
 30
0.0
 10
33.53697558030151
 20
0.2280231863631899
 30
0.0
 10
33.53697558030151
 20
0.2280231863631899
 30
0.0
 10
33.51269995928611
 20
0.2280231863631899
 30
0.0
 10
33.49439337637278
 20
0.2504350995263596
 30
0.0
 10
33.49439337637278
 20
0.2801552764804758
 30
0.0
 10
33.49439337637278
 20
0.3018832074249329
 30
0.0
 10
33.49995432424362
 20
0.3177412489501169
 30
0.0
 10
33.51358511274556
 20
0.3348896602913606
 30
0.0
 10
33.51358511274556
 20
0.3348896602913606
 30
0.0
 10
33.51481656812681
 20
0.3364386788455754
 30
0.0
 10
33.51481656812681
 20
0.3364386788455754
 30
0.0
 10
33.51481656812681
 20
0.3364386788455754
 30
0.0
 10
33.52696156332179
 20
0.3265669186717635
 30
0.0
 10
33.52696156332179
 20
0.3265669186717635
 30
0.0
 10
33.52696156332179
 20
0.3265669186717635
 30
0.0
 10
33.5256568241314
 20
0.3250423280539204
 30
0.0
 10
33.5256568241314
 20
0.3250423280539204
 30
0.0
 10
33.51391991916777
 20
0.3113152647438255
 30
0.0
 10
33.50868515609459
 20
0.2973338635078511
 30
0.0
 10
33.50868515609459
 20
0.279708388938439
 30
0.0
 10
33.50868515609459
 20
0.2587477825839212
 30
0.0
 10
33.52011886725945
 20
0.243533489029283
 30
0.0
 10
33.53587201235195
 20
0.243533489029283
 30
0.0
 10
33.53587201235195
 20
0.243533489029283
 30
0.0
 10
33.53631458908181
 20
0.243533489029283
 30
0.0
 10
33.53631458908181
 20
0.243533489029283
 30
0.0
 10
33.55120126090138
 20
0.243533489029283
 30
0.0
 10
33.56068935878029
 20
0.2505328112718719
 30
0.0
 10
33.56817867668792
 20
0.2874563555843047
 30
0.0
 10
33.57565075134637
 20
0.3245049134535141
 30
0.0
 10
33.58896685055028
 20
0.3403126621685209
 30
0.0
 10
33.61270793084027
 20
0.3403126621685209
 30
0.0
 10
33.61270793084027
 20
0.3403126621685209
 30
0.0
 10
33.61315050757
 20
0.3403126621685209
 30
0.0
 10
33.61315050757
 20
0.3403126621685209
 30
0.0
 10
33.63913321025749
 20
0.3403126621685209
 30
0.0
 10
33.65727885617805
 20
0.3182341184901057
 30
0.0
 10
33.65727885617805
 20
0.2866214949349594
 30
0.0
  0
HATCH
  5
3E3
330
3DE
100
AcDbEntity
  8
Information
 62
   169
420
  1846073
100
AcDbHatch
 10
0.0
 20
0.0
 30
0.0
210
0.0
220
0.0
230
1.0
  2
SOLID
 70
     1
 71
     0
 91
        1
 92
        1
 93
        1
 72
     4
 94
        3
 73
     0
 74
     1
 95
       71
 96
       67
 40
0.0
 40
0.0
 40
0.0
 40
0.0
 40
1.0
 40
1.0
 40
1.0
 40
2.0
 40
2.0
 40
2.0
 40
3.0
 40
3.0
 40
3.0
 40
4.0
 40
4.0
 40
4.0
 40
5.0
 40
5.0
 40
5.0
 40
6.0
 40
6.0
 40
6.0
 40
7.0
 40
7.0
 40
7.0
 40
8.0
 40
8.0
 40
8.0
 40
9.0
 40
9.0
 40
9.0
 40
10.0
 40
10.0
 40
10.0
 40
11.0
 40
11.0
 40
11.0
 40
12.0
 40
12.0
 40
12.0
 40
13.0
 40
13.0
 40
13.0
 40
14.0
 40
14.0
 40
14.0
 40
15.0
 40
15.0
 40
15.0
 40
16.0
 40
16.0
 40
16.0
 40
17.0
 40
17.0
 40
17.0
 40
18.0
 40
18.0
 40
18.0
 40
19.0
 40
19.0
 40
19.0
 40
20.0
 40
20.0
 40
20.0
 40
21.0
 40
21.0
 40
21.0
 40
22.0
 40
22.0
 40
22.0
 40
22.0
 10
33.65727885617805
 20
0.2866214949349594
 10
33.65727885617805
 20
0.2619636485619594
 10
33.64950071384611
 20
0.2421683984666743
 10
33.63206060420568
 20
0.2224406844308204
 10
33.63206060420568
 20
0.2224406844308204
 10
33.63076736051486
 20
0.2209778821226993
 10
33.63076736051486
 20
0.2209778821226993
 10
33.63076736051486
 20
0.2209778821226993
 10
33.61919282948126
 20
0.2311657685320622
 10
33.61919282948126
 20
0.2311657685320622
 10
33.61919282948126
 20
0.2311657685320622
 10
33.62053636598236
 20
0.2326371924648103
 10
33.62053636598236
 20
0.2326371924648103
 10
33.63669329049389
 20
0.2503330769685211
 10
33.64298707645624
 20
0.265656577768166
 10
33.64298707645624
 20
0.2872911077793358
 10
33.64298707645624
 20
0.309378273082378
 10
33.63117113993389
 20
0.3248037964398615
 10
33.61425407551958
 20
0.3248037964398615
 10
33.61425407551958
 20
0.3248037964398615
 10
33.61381437266459
 20
0.3248037964398615
 10
33.61381437266459
 20
0.3248037964398615
 10
33.59922514689389
 20
0.3248037964398615
 10
33.58996839594207
 20
0.3180185778749597
 10
33.58283400158054
 20
0.2822259033233523
 10
33.57511908449568
 20
0.2437260386454909
 10
33.56196248534709
 20
0.2280231863631899
 10
33.53741815703138
 20
0.2280231863631899
 10
33.53741815703138
 20
0.2280231863631899
 10
33.53697558030151
 20
0.2280231863631899
 10
33.53697558030151
 20
0.2280231863631899
 10
33.51269995928611
 20
0.2280231863631899
 10
33.49439337637278
 20
0.2504350995263596
 10
33.49439337637278
 20
0.2801552764804758
 10
33.49439337637278
 20
0.3018832074249329
 10
33.49995432424362
 20
0.3177412489501169
 10
33.51358511274556
 20
0.3348896602913606
 10
33.51358511274556
 20
0.3348896602913606
 10
33.51481656812681
 20
0.3364386788455754
 10
33.51481656812681
 20
0.3364386788455754
 10
33.51481656812681
 20
0.3364386788455754
 10
33.52696156332179
 20
0.3265669186717635
 10
33.52696156332179
 20
0.3265669186717635
 10
33.52696156332179
 20
0.3265669186717635
 10
33.5256568241314
 20
0.3250423280539204
 10
33.5256568241314
 20
0.3250423280539204
 10
33.51391991916777
 20
0.3113152647438255
 10
33.50868515609459
 20
0.2973338635078511
 10
33.50868515609459
 20
0.279708388938439
 10
33.50868515609459
 20
0.2587477825839212
 10
33.52011886725945
 20
0.243533489029283
 10
33.53587201235195
 20
0.243533489029283
 10
33.53587201235195
 20
0.243533489029283
 10
33.53631458908181
 20
0.243533489029283
 10
33.53631458908181
 20
0.243533489029283
 10
33.55120126090138
 20
0.243533489029283
 10
33.56068935878029
 20
0.2505328112718719
 10
33.56817867668792
 20
0.2874563555843047
 10
33.57565075134637
 20
0.3245049134535141
 10
33.58896685055028
 20
0.3403126621685209
 10
33.61270793084027
 20
0.3403126621685209
 10
33.61270793084027
 20
0.3403126621685209
 10
33.61315050757
 20
0.3403126621685209
 10
33.61315050757
 20
0.3403126621685209
 10
33.63913321025749
 20
0.3403126621685209
 10
33.65727885617805
 20
0.3182341184901057
 10
33.65727885617805
 20
0.2866214949349594
 97
        0
 97
        0
 75
     2
 76
     1
 98
        0
  0
SPLINE
  5
3E4
330
3DE
100
AcDbEntity
  8
Information
370
     0
100
AcDbSpline
210
0.0
220
0.0
230
1.0
 70
    11
 71
     3
 72
    29
 73
    25
 74
     0
 42
0.0000000001
 43
0.0000000001
 12
1.0
 22
0.0
 32
0.0
 13
1.0
 23
0.0
 33
0.0
 40
0.0
 40
0.0
 40
0.0
 40
0.0
 40
1.0
 40
1.0
 40
1.0
 40
2.0
 40
2.0
 40
2.0
 40
3.0
 40
3.0
 40
3.0
 40
4.0
 40
4.0
 40
4.0
 40
5.0
 40
5.0
 40
5.0
 40
6.0
 40
6.0
 40
6.0
 40
7.0
 40
7.0
 40
7.0
 40
8.0
 40
8.0
 40
8.0
 40
8.0
 10
33.65772143290792
 20
0.4746217672174377
 30
0.0
 10
33.65772143290792
 20
0.4288840486828778
 30
0.0
 10
33.6227090153832
 20
0.394393239446774
 30
0.0
 10
33.57627869300515
 20
0.394393239446774
 30
0.0
 10
33.57627869300515
 20
0.394393239446774
 30
0.0
 10
33.57583611627542
 20
0.394393239446774
 30
0.0
 10
33.57583611627542
 20
0.394393239446774
 30
0.0
 10
33.53558462486514
 20
0.394393239446774
 30
0.0
 10
33.49395079964304
 20
0.4245689255675794
 30
0.0
 10
33.49395079964304
 20
0.4750672178220914
 30
0.0
 10
33.49395079964304
 20
0.5205347921190019
 30
0.0
 10
33.52854937918666
 20
0.5548862184239927
 30
0.0
 10
33.57457161133318
 20
0.5552914347804542
 30
0.0
 10
33.57457161133318
 20
0.5552914347804542
 30
0.0
 10
33.57457161133318
 20
0.5552928717178879
 30
0.0
 10
33.57457161133318
 20
0.5552928717178879
 30
0.0
 10
33.57457161133318
 20
0.5552928717178879
 30
0.0
 10
33.57560908016082
 20
0.5554624303351071
 30
0.0
 10
33.57560908016082
 20
0.5554624303351071
 30
0.0
 10
33.5759295172086
 20
0.555463867272566
 30
0.0
 10
33.57620253532112
 20
0.5553934573382927
 30
0.0
 10
33.57643100837319
 20
0.5552928717178879
 30
0.0
 10
33.61649569791709
 20
0.5549968626064078
 30
0.0
 10
33.65772143290792
 20
0.5248700323583458
 30
0.0
 10
33.65772143290792
 20
0.4746217672174377
 30
0.0
  0
SPLINE
  5
3E5
330
3DE
100
AcDbEntity
  8
Information
370
     0
100
AcDbSpline
210
0.0
220
0.0
230
1.0
 70
    11
 71
     3
 72
    23
 73
    19
 74
     0
 42
0.0000000001
 43
0.0000000001
 12
1.0
 22
0.0
 32
0.0
 13
1.0
 23
0.0
 33
0.0
 40
0.0
 40
0.0
 40
0.0
 40
0.0
 40
1.0
 40
1.0
 40
1.0
 40
2.0
 40
2.0
 40
2.0
 40
3.0
 40
3.0
 40
3.0
 40
4.0
 40
4.0
 40
4.0
 40
5.0
 40
5.0
 40
5.0
 40
6.0
 40
6.0
 40
6.0
 40
6.0
 10
33.50824257936473
 20
0.4746217672174377
 30
0.0
 10
33.50824257936473
 20
0.4379798626421487
 30
0.0
 10
33.53711208935778
 20
0.4103489927175208
 30
0.0
 10
33.57539641342055
 20
0.4103489927175208
 30
0.0
 10
33.57539641342055
 20
0.4103489927175208
 30
0.0
 10
33.57583611627542
 20
0.4103489927175208
 30
0.0
 10
33.57583611627542
 20
0.4103489927175208
 30
0.0
 10
33.61373965191807
 20
0.4103489927175208
 30
0.0
 10
33.6434296531861
 20
0.4387759259807859
 30
0.0
 10
33.6434296531861
 20
0.4750672178220914
 30
0.0
 10
33.6434296531861
 20
0.5117091223973552
 30
0.0
 10
33.61456158013056
 20
0.5393399923220082
 30
0.0
 10
33.57627869300515
 20
0.5393399923220082
 30
0.0
 10
33.57627869300515
 20
0.5393399923220082
 30
0.0
 10
33.57583611627542
 20
0.5393399923220082
 30
0.0
 10
33.57583611627542
 20
0.5393399923220082
 30
0.0
 10
33.53793258063276
 20
0.5393399923220082
 30
0.0
 10
33.50824257936473
 20
0.5109130590587433
 30
0.0
 10
33.50824257936473
 20
0.4746217672174377
 30
0.0
  0
HATCH
  5
3E6
330
3DE
100
AcDbEntity
  8
Information
 62
   169
420
  1846073
100
AcDbHatch
 10
0.0
 20
0.0
 30
0.0
210
0.0
220
0.0
230
1.0
  2
SOLID
 70
     1
 71
     0
 91
        2
 92
        1
 93
        1
 72
     4
 94
        3
 73
     0
 74
     1
 95
       29
 96
       25
 40
0.0
 40
0.0
 40
0.0
 40
0.0
 40
1.0
 40
1.0
 40
1.0
 40
2.0
 40
2.0
 40
2.0
 40
3.0
 40
3.0
 40
3.0
 40
4.0
 40
4.0
 40
4.0
 40
5.0
 40
5.0
 40
5.0
 40
6.0
 40
6.0
 40
6.0
 40
7.0
 40
7.0
 40
7.0
 40
8.0
 40
8.0
 40
8.0
 40
8.0
 10
33.65772143290792
 20
0.4746217672174377
 10
33.65772143290792
 20
0.4288840486828778
 10
33.6227090153832
 20
0.394393239446774
 10
33.57627869300515
 20
0.394393239446774
 10
33.57627869300515
 20
0.394393239446774
 10
33.57583611627542
 20
0.394393239446774
 10
33.57583611627542
 20
0.394393239446774
 10
33.53558462486514
 20
0.394393239446774
 10
33.49395079964304
 20
0.4245689255675794
 10
33.49395079964304
 20
0.4750672178220914
 10
33.49395079964304
 20
0.5205347921190019
 10
33.52854937918666
 20
0.5548862184239927
 10
33.57457161133318
 20
0.5552914347804542
 10
33.57457161133318
 20
0.5552914347804542
 10
33.57457161133318
 20
0.5552928717178879
 10
33.57457161133318
 20
0.5552928717178879
 10
33.57457161133318
 20
0.5552928717178879
 10
33.57560908016082
 20
0.5554624303351071
 10
33.57560908016082
 20
0.5554624303351071
 10
33.5759295172086
 20
0.555463867272566
 10
33.57620253532112
 20
0.5553934573382927
 10
33.57643100837319
 20
0.5552928717178879
 10
33.61649569791709
 20
0.5549968626064078
 10
33.65772143290792
 20
0.5248700323583458
 10
33.65772143290792
 20
0.4746217672174377
 97
        0
 97
        0
 92
        1
 93
        1
 72
     4
 94
        3
 73
     0
 74
     1
 95
       23
 96
       19
 40
0.0
 40
0.0
 40
0.0
 40
0.0
 40
1.0
 40
1.0
 40
1.0
 40
2.0
 40
2.0
 40
2.0
 40
3.0
 40
3.0
 40
3.0
 40
4.0
 40
4.0
 40
4.0
 40
5.0
 40
5.0
 40
5.0
 40
6.0
 40
6.0
 40
6.0
 40
6.0
 10
33.50824257936473
 20
0.4746217672174377
 10
33.50824257936473
 20
0.4379798626421487
 10
33.53711208935778
 20
0.4103489927175208
 10
33.57539641342055
 20
0.4103489927175208
 10
33.57539641342055
 20
0.4103489927175208
 10
33.57583611627542
 20
0.4103489927175208
 10
33.57583611627542
 20
0.4103489927175208
 10
33.61373965191807
 20
0.4103489927175208
 10
33.6434296531861
 20
0.4387759259807859
 10
33.6434296531861
 20
0.4750672178220914
 10
33.6434296531861
 20
0.5117091223973552
 10
33.61456158013056
 20
0.5393399923220082
 10
33.57627869300515
 20
0.5393399923220082
 10
33.57627869300515
 20
0.5393399923220082
 10
33.57583611627542
 20
0.5393399923220082
 10
33.57583611627542
 20
0.5393399923220082
 10
33.53793258063276
 20
0.5393399923220082
 10
33.50824257936473
 20
0.5109130590587433
 10
33.50824257936473
 20
0.4746217672174377
 97
        0
 97
        0
 75
     2
 76
     1
 98
        0
  0
POLYLINE
  5
3E7
330
3DE
100
AcDbEntity
  8
Information
370
     0
100
AcDb2dPolyline
 66
     1
 10
0.0
 20
0.0
 30
0.0
  0
VERTEX
  5
3E8
330
3E7
100
AcDbEntity
  8
Information
370
     0
100
AcDbVertex
100
AcDb2dVertex
 10
33.65507172027903
 20
0.7513256242582429
 30
0.0
  0
VERTEX
  5
3E9
330
3E7
100
AcDbEntity
  8
Information
370
     0
100
AcDbVertex
100
AcDb2dVertex
 10
33.65507172027903
 20
0.7397309761006706
 30
0.0
  0
VERTEX
  5
3EA
330
3E7
100
AcDbEntity
  8
Information
370
     0
100
AcDbVertex
100
AcDb2dVertex
 10
33.52135750732792
 20
0.6326920696803628
 30
0.0
  0
VERTEX
  5
3EB
330
3E7
100
AcDbEntity
  8
Information
370
     0
100
AcDbVertex
100
AcDb2dVertex
 10
33.65507172027903
 20
0.6326920696803628
 30
0.0
  0
VERTEX
  5
3EC
330
3E7
100
AcDbEntity
  8
Information
370
     0
100
AcDbVertex
100
AcDb2dVertex
 10
33.65507172027903
 20
0.6176286545563319
 30
0.0
  0
VERTEX
  5
3ED
330
3E7
100
AcDbEntity
  8
Information
370
     0
100
AcDbVertex
100
AcDb2dVertex
 10
33.49660051227195
 20
0.6176286545563319
 30
0.0
  0
VERTEX
  5
3EE
330
3E7
100
AcDbEntity
  8
Information
370
     0
100
AcDbVertex
100
AcDb2dVertex
 10
33.49660051227195
 20
0.6314519926745561
 30
0.0
  0
VERTEX
  5
3EF
330
3E7
100
AcDbEntity
  8
Information
370
     0
100
AcDbVertex
100
AcDb2dVertex
 10
33.62744947197903
 20
0.7362607721967783
 30
0.0
  0
VERTEX
  5
3F0
330
3E7
100
AcDbEntity
  8
Information
370
     0
100
AcDbVertex
100
AcDb2dVertex
 10
33.49660051227195
 20
0.7362607721967783
 30
0.0
  0
VERTEX
  5
3F1
330
3E7
100
AcDbEntity
  8
Information
370
     0
100
AcDbVertex
100
AcDb2dVertex
 10
33.49660051227195
 20
0.7513256242582429
 30
0.0
  0
VERTEX
  5
3F2
330
3E7
100
AcDbEntity
  8
Information
370
     0
100
AcDbVertex
100
AcDb2dVertex
 10
33.65507172027903
 20
0.7513256242582429
 30
0.0
  0
SEQEND
  5
3F3
330
3E7
100
AcDbEntity
  8
Information
370
     0
  0
HATCH
  5
3F4
330
3DE
100
AcDbEntity
  8
Information
 62
   169
420
  1846073
100
AcDbHatch
 10
0.0
 20
0.0
 30
0.0
210
0.0
220
0.0
230
1.0
  2
SOLID
 70
     1
 71
     0
 91
        1
 92
        1
 93
       10
 72
     1
 10
33.65507172027903
 20
0.7513256242582429
 11
33.65507172027903
 21
0.7397309761006706
 72
     1
 10
33.65507172027903
 20
0.7397309761006706
 11
33.52135750732792
 21
0.6326920696803628
 72
     1
 10
33.52135750732792
 20
0.6326920696803628
 11
33.65507172027903
 21
0.6326920696803628
 72
     1
 10
33.65507172027903
 20
0.6326920696803628
 11
33.65507172027903
 21
0.6176286545563319
 72
     1
 10
33.65507172027903
 20
0.6176286545563319
 11
33.49660051227195
 21
0.6176286545563319
 72
     1
 10
33.49660051227195
 20
0.6176286545563319
 11
33.49660051227195
 21
0.6314519926745561
 72
     1
 10
33.49660051227195
 20
0.6314519926745561
 11
33.62744947197903
 21
0.7362607721967783
 72
     1
 10
33.62744947197903
 20
0.7362607721967783
 11
33.49660051227195
 21
0.7362607721967783
 72
     1
 10
33.49660051227195
 20
0.7362607721967783
 11
33.49660051227195
 21
0.7513256242582429
 72
     1
 10
33.49660051227195
 20
0.7513256242582429
 11
33.65507172027903
 21
0.7513256242582429
 97
        0
 75
     2
 76
     1
 98
        0
  0
POLYLINE
  5
3F5
330
3DE
100
AcDbEntity
  8
Information
370
     0
100
AcDb2dPolyline
 66
     1
 10
0.0
 20
0.0
 30
0.0
  0
VERTEX
  5
3F6
330
3F5
100
AcDbEntity
  8
Information
370
     0
100
AcDbVertex
100
AcDb2dVertex
 10
33.65507172027903
 20
1.157207282769984
 30
0.0
  0
VERTEX
  5
3F7
330
3F5
100
AcDbEntity
  8
Information
370
     0
100
AcDbVertex
100
AcDb2dVertex
 10
33.65507172027903
 20
1.145614071549845
 30
0.0
  0
VERTEX
  5
3F8
330
3F5
100
AcDbEntity
  8
Information
370
     0
100
AcDbVertex
100
AcDb2dVertex
 10
33.52135750732792
 20
1.038573728192104
 30
0.0
  0
VERTEX
  5
3F9
330
3F5
100
AcDbEntity
  8
Information
370
     0
100
AcDbVertex
100
AcDb2dVertex
 10
33.65507172027903
 20
1.038573728192104
 30
0.0
  0
VERTEX
  5
3FA
330
3F5
100
AcDbEntity
  8
Information
370
     0
100
AcDbVertex
100
AcDb2dVertex
 10
33.65507172027903
 20
1.023511750005532
 30
0.0
  0
VERTEX
  5
3FB
330
3F5
100
AcDbEntity
  8
Information
370
     0
100
AcDbVertex
100
AcDb2dVertex
 10
33.49660051227195
 20
1.023511750005532
 30
0.0
  0
VERTEX
  5
3FC
330
3F5
100
AcDbEntity
  8
Information
370
     0
100
AcDbVertex
100
AcDb2dVertex
 10
33.49660051227195
 20
1.03733508812373
 30
0.0
  0
VERTEX
  5
3FD
330
3F5
100
AcDbEntity
  8
Information
370
     0
100
AcDbVertex
100
AcDb2dVertex
 10
33.62744947197903
 20
1.142145304583412
 30
0.0
  0
VERTEX
  5
3FE
330
3F5
100
AcDbEntity
  8
Information
370
     0
100
AcDbVertex
100
AcDb2dVertex
 10
33.49660051227195
 20
1.142145304583412
 30
0.0
  0
VERTEX
  5
3FF
330
3F5
100
AcDbEntity
  8
Information
370
     0
100
AcDbVertex
100
AcDb2dVertex
 10
33.49660051227195
 20
1.157207282769984
 30
0.0
  0
VERTEX
  5
400
330
3F5
100
AcDbEntity
  8
Information
370
     0
100
AcDbVertex
100
AcDb2dVertex
 10
33.65507172027903
 20
1.157207282769984
 30
0.0
  0
SEQEND
  5
401
330
3F5
100
AcDbEntity
  8
Information
370
     0
  0
HATCH
  5
402
330
3DE
100
AcDbEntity
  8
Information
 62
   169
420
  1846073
100
AcDbHatch
 10
0.0
 20
0.0
 30
0.0
210
0.0
220
0.0
230
1.0
  2
SOLID
 70
     1
 71
     0
 91
        1
 92
        1
 93
       10
 72
     1
 10
33.65507172027903
 20
1.157207282769984
 11
33.65507172027903
 21
1.145614071549845
 72
     1
 10
33.65507172027903
 20
1.145614071549845
 11
33.52135750732792
 21
1.038573728192104
 72
     1
 10
33.52135750732792
 20
1.038573728192104
 11
33.65507172027903
 21
1.038573728192104
 72
     1
 10
33.65507172027903
 20
1.038573728192104
 11
33.65507172027903
 21
1.023511750005532
 72
     1
 10
33.65507172027903
 20
1.023511750005532
 11
33.49660051227195
 21
1.023511750005532
 72
     1
 10
33.49660051227195
 20
1.023511750005532
 11
33.49660051227195
 21
1.03733508812373
 72
     1
 10
33.49660051227195
 20
1.03733508812373
 11
33.62744947197903
 21
1.142145304583412
 72
     1
 10
33.62744947197903
 20
1.142145304583412
 11
33.49660051227195
 21
1.142145304583412
 72
     1
 10
33.49660051227195
 20
1.142145304583412
 11
33.49660051227195
 21
1.157207282769984
 72
     1
 10
33.49660051227195
 20
1.157207282769984
 11
33.65507172027903
 21
1.157207282769984
 97
        0
 75
     2
 76
     1
 98
        0
  0
SPLINE
  5
403
330
3DE
100
AcDbEntity
  8
Information
370
     0
100
AcDbSpline
210
0.0
220
0.0
230
1.0
 70
    11
 71
     3
 72
    53
 73
    49
 74
     0
 42
0.0000000001
 43
0.0000000001
 12
1.0
 22
0.0
 32
0.0
 13
1.0
 23
0.0
 33
0.0
 40
0.0
 40
0.0
 40
0.0
 40
0.0
 40
1.0
 40
1.0
 40
1.0
 40
2.0
 40
2.0
 40
2.0
 40
3.0
 40
3.0
 40
3.0
 40
4.0
 40
4.0
 40
4.0
 40
5.0
 40
5.0
 40
5.0
 40
6.0
 40
6.0
 40
6.0
 40
7.0
 40
7.0
 40
7.0
 40
8.0
 40
8.0
 40
8.0
 40
9.0
 40
9.0
 40
9.0
 40
10.0
 40
10.0
 40
10.0
 40
11.0
 40
11.0
 40
11.0
 40
12.0
 40
12.0
 40
12.0
 40
13.0
 40
13.0
 40
13.0
 40
14.0
 40
14.0
 40
14.0
 40
15.0
 40
15.0
 40
15.0
 40
16.0
 40
16.0
 40
16.0
 40
16.0
 10
33.65772143290792
 20
1.299099106659823
 30
0.0
 10
33.65772143290792
 20
1.253742176545378
 30
0.0
 10
33.6227090153832
 20
1.219538754796152
 30
0.0
 10
33.57627869300515
 20
1.219538754796152
 30
0.0
 10
33.57627869300515
 20
1.219538754796152
 30
0.0
 10
33.57583611627542
 20
1.219538754796152
 30
0.0
 10
33.57583611627542
 20
1.219538754796152
 30
0.0
 10
33.52991878056152
 20
1.219538754796152
 30
0.0
 10
33.49395079964304
 20
1.254681933627429
 30
0.0
 10
33.49395079964304
 20
1.299544557264501
 30
0.0
 10
33.49395079964304
 20
1.327899643656034
 30
0.0
 10
33.50403953736946
 20
1.344825329694938
 30
0.0
 10
33.51918916873946
 20
1.361515357994626
 30
0.0
 10
33.51918916873946
 20
1.361515357994626
 30
0.0
 10
33.52055713317693
 20
1.363024142300674
 30
0.0
 10
33.52055713317693
 20
1.363024142300674
 30
0.0
 10
33.52055713317693
 20
1.363024142300674
 30
0.0
 10
33.53177817760153
 20
1.35199133667993
 30
0.0
 10
33.53177817760153
 20
1.35199133667993
 30
0.0
 10
33.53177817760153
 20
1.35199133667993
 30
0.0
 10
33.53044326272513
 20
1.35059607043119
 30
0.0
 10
33.53044326272513
 20
1.35059607043119
 30
0.0
 10
33.51946506072682
 20
1.339132183580154
 30
0.0
 10
33.50824257936473
 20
1.324074516205832
 30
0.0
 10
33.50824257936473
 20
1.299323268899621
 30
0.0
 10
33.50824257936473
 20
1.262934265312778
 30
0.0
 10
33.53711208935778
 20
1.235494508066899
 30
0.0
 10
33.57539641342055
 20
1.235494508066899
 30
0.0
 10
33.57539641342055
 20
1.235494508066899
 30
0.0
 10
33.57583611627542
 20
1.235494508066899
 30
0.0
 10
33.57583611627542
 20
1.235494508066899
 30
0.0
 10
33.61373965191807
 20
1.235494508066899
 30
0.0
 10
33.6434296531861
 20
1.263628306093526
 30
0.0
 10
33.6434296531861
 20
1.299544557264501
 30
0.0
 10
33.6434296531861
 20
1.319640127283542
 30
0.0
 10
33.63661856974734
 20
1.334814186590014
 30
0.0
 10
33.61991991982305
 20
1.351919489808223
 30
0.0
 10
33.61991991982305
 20
1.351919489808223
 30
0.0
 10
33.61859650044612
 20
1.353275958746205
 30
0.0
 10
33.61859650044612
 20
1.353275958746205
 30
0.0
 10
33.61859650044612
 20
1.353275958746205
 30
0.0
 10
33.62881599947902
 20
1.363903548010462
 30
0.0
 10
33.62881599947902
 20
1.363903548010462
 30
0.0
 10
33.62881599947902
 20
1.363903548010462
 30
0.0
 10
33.63022707203943
 20
1.362459425888978
 30
0.0
 10
33.63022707203943
 20
1.362459425888978
 30
0.0
 10
33.64382337404307
 20
1.348538376025241
 30
0.0
 10
33.65772143290792
 20
1.330125459741794
 30
0.0
 10
33.65772143290792
 20
1.299099106659823
 30
0.0
  0
HATCH
  5
404
330
3DE
100
AcDbEntity
  8
Information
 62
   169
420
  1846073
100
AcDbHatch
 10
0.0
 20
0.0
 30
0.0
210
0.0
220
0.0
230
1.0
  2
SOLID
 70
     1
 71
     0
 91
        1
 92
        1
 93
        1
 72
     4
 94
        3
 73
     0
 74
     1
 95
       53
 96
       49
 40
0.0
 40
0.0
 40
0.0
 40
0.0
 40
1.0
 40
1.0
 40
1.0
 40
2.0
 40
2.0
 40
2.0
 40
3.0
 40
3.0
 40
3.0
 40
4.0
 40
4.0
 40
4.0
 40
5.0
 40
5.0
 40
5.0
 40
6.0
 40
6.0
 40
6.0
 40
7.0
 40
7.0
 40
7.0
 40
8.0
 40
8.0
 40
8.0
 40
9.0
 40
9.0
 40
9.0
 40
10.0
 40
10.0
 40
10.0
 40
11.0
 40
11.0
 40
11.0
 40
12.0
 40
12.0
 40
12.0
 40
13.0
 40
13.0
 40
13.0
 40
14.0
 40
14.0
 40
14.0
 40
15.0
 40
15.0
 40
15.0
 40
16.0
 40
16.0
 40
16.0
 40
16.0
 10
33.65772143290792
 20
1.299099106659823
 10
33.65772143290792
 20
1.253742176545378
 10
33.6227090153832
 20
1.219538754796152
 10
33.57627869300515
 20
1.219538754796152
 10
33.57627869300515
 20
1.219538754796152
 10
33.57583611627542
 20
1.219538754796152
 10
33.57583611627542
 20
1.219538754796152
 10
33.52991878056152
 20
1.219538754796152
 10
33.49395079964304
 20
1.254681933627429
 10
33.49395079964304
 20
1.299544557264501
 10
33.49395079964304
 20
1.327899643656034
 10
33.50403953736946
 20
1.344825329694938
 10
33.51918916873946
 20
1.361515357994626
 10
33.51918916873946
 20
1.361515357994626
 10
33.52055713317693
 20
1.363024142300674
 10
33.52055713317693
 20
1.363024142300674
 10
33.52055713317693
 20
1.363024142300674
 10
33.53177817760153
 20
1.35199133667993
 10
33.53177817760153
 20
1.35199133667993
 10
33.53177817760153
 20
1.35199133667993
 10
33.53044326272513
 20
1.35059607043119
 10
33.53044326272513
 20
1.35059607043119
 10
33.51946506072682
 20
1.339132183580154
 10
33.50824257936473
 20
1.324074516205832
 10
33.50824257936473
 20
1.299323268899621
 10
33.50824257936473
 20
1.262934265312778
 10
33.53711208935778
 20
1.235494508066899
 10
33.57539641342055
 20
1.235494508066899
 10
33.57539641342055
 20
1.235494508066899
 10
33.57583611627542
 20
1.235494508066899
 10
33.57583611627542
 20
1.235494508066899
 10
33.61373965191807
 20
1.235494508066899
 10
33.6434296531861
 20
1.263628306093526
 10
33.6434296531861
 20
1.299544557264501
 10
33.6434296531861
 20
1.319640127283542
 10
33.63661856974734
 20
1.334814186590014
 10
33.61991991982305
 20
1.351919489808223
 10
33.61991991982305
 20
1.351919489808223
 10
33.61859650044612
 20
1.353275958746205
 10
33.61859650044612
 20
1.353275958746205
 10
33.61859650044612
 20
1.353275958746205
 10
33.62881599947902
 20
1.363903548010462
 10
33.62881599947902
 20
1.363903548010462
 10
33.62881599947902
 20
1.363903548010462
 10
33.63022707203943
 20
1.362459425888978
 10
33.63022707203943
 20
1.362459425888978
 10
33.64382337404307
 20
1.348538376025241
 10
33.65772143290792
 20
1.330125459741794
 10
33.65772143290792
 20
1.299099106659823
 97
        0
 97
        0
 75
     2
 76
     1
 98
        0
  0
POLYLINE
  5
405
330
3DE
100
AcDbEntity
  8
Information
370
     0
100
AcDb2dPolyline
 66
     1
 10
0.0
 20
0.0
 30
0.0
  0
VERTEX
  5
406
330
405
100
AcDbEntity
  8
Information
370
     0
100
AcDbVertex
100
AcDb2dVertex
 10
33.65507172027903
 20
1.533877440179367
 30
0.0
  0
VERTEX
  5
407
330
405
100
AcDbEntity
  8
Information
370
     0
100
AcDbVertex
100
AcDb2dVertex
 10
33.65507172027903
 20
1.4177987603597
 30
0.0
  0
VERTEX
  5
408
330
405
100
AcDbEntity
  8
Information
370
     0
100
AcDbVertex
100
AcDb2dVertex
 10
33.49660051227195
 20
1.4177987603597
 30
0.0
  0
VERTEX
  5
409
330
405
100
AcDbEntity
  8
Information
370
     0
100
AcDbVertex
100
AcDb2dVertex
 10
33.49660051227195
 20
1.532762376730312
 30
0.0
  0
VERTEX
  5
40A
330
405
100
AcDbEntity
  8
Information
370
     0
100
AcDbVertex
100
AcDb2dVertex
 10
33.5111135803586
 20
1.532762376730312
 30
0.0
  0
VERTEX
  5
40B
330
405
100
AcDbEntity
  8
Information
370
     0
100
AcDbVertex
100
AcDb2dVertex
 10
33.5111135803586
 20
1.433309063025819
 30
0.0
  0
VERTEX
  5
40C
330
405
100
AcDbEntity
  8
Information
370
     0
100
AcDbVertex
100
AcDb2dVertex
 10
33.56791859101223
 20
1.433309063025819
 30
0.0
  0
VERTEX
  5
40D
330
405
100
AcDbEntity
  8
Information
370
     0
100
AcDbVertex
100
AcDb2dVertex
 10
33.56791859101223
 20
1.522729679563857
 30
0.0
  0
VERTEX
  5
40E
330
405
100
AcDbEntity
  8
Information
370
     0
100
AcDbVertex
100
AcDb2dVertex
 10
33.58243165909903
 20
1.522729679563857
 30
0.0
  0
VERTEX
  5
40F
330
405
100
AcDbEntity
  8
Information
370
     0
100
AcDbVertex
100
AcDb2dVertex
 10
33.58243165909903
 20
1.433309063025819
 30
0.0
  0
VERTEX
  5
410
330
405
100
AcDbEntity
  8
Information
370
     0
100
AcDbVertex
100
AcDb2dVertex
 10
33.64055865219221
 20
1.433309063025819
 30
0.0
  0
VERTEX
  5
411
330
405
100
AcDbEntity
  8
Information
370
     0
100
AcDbVertex
100
AcDb2dVertex
 10
33.64055865219221
 20
1.533877440179367
 30
0.0
  0
VERTEX
  5
412
330
405
100
AcDbEntity
  8
Information
370
     0
100
AcDbVertex
100
AcDb2dVertex
 10
33.65507172027903
 20
1.533877440179367
 30
0.0
  0
SEQEND
  5
413
330
405
100
AcDbEntity
  8
Information
370
     0
  0
HATCH
  5
414
330
3DE
100
AcDbEntity
  8
Information
 62
   169
420
  1846073
100
AcDbHatch
 10
0.0
 20
0.0
 30
0.0
210
0.0
220
0.0
230
1.0
  2
SOLID
 70
     1
 71
     0
 91
        1
 92
        1
 93
       12
 72
     1
 10
33.65507172027903
 20
1.533877440179367
 11
33.65507172027903
 21
1.4177987603597
 72
     1
 10
33.65507172027903
 20
1.4177987603597
 11
33.49660051227195
 21
1.4177987603597
 72
     1
 10
33.49660051227195
 20
1.4177987603597
 11
33.49660051227195
 21
1.532762376730312
 72
     1
 10
33.49660051227195
 20
1.532762376730312
 11
33.5111135803586
 21
1.532762376730312
 72
     1
 10
33.5111135803586
 20
1.532762376730312
 11
33.5111135803586
 21
1.433309063025819
 72
     1
 10
33.5111135803586
 20
1.433309063025819
 11
33.56791859101223
 21
1.433309063025819
 72
     1
 10
33.56791859101223
 20
1.433309063025819
 11
33.56791859101223
 21
1.522729679563857
 72
     1
 10
33.56791859101223
 20
1.522729679563857
 11
33.58243165909903
 21
1.522729679563857
 72
     1
 10
33.58243165909903
 20
1.522729679563857
 11
33.58243165909903
 21
1.433309063025819
 72
     1
 10
33.58243165909903
 20
1.433309063025819
 11
33.64055865219221
 21
1.433309063025819
 72
     1
 10
33.64055865219221
 20
1.433309063025819
 11
33.64055865219221
 21
1.533877440179367
 72
     1
 10
33.64055865219221
 20
1.533877440179367
 11
33.65507172027903
 21
1.533877440179367
 97
        0
 75
     2
 76
     1
 98
        0
  0
POLYLINE
  5
415
330
3DE
100
AcDbEntity
  8
Information
370
     0
100
AcDb2dPolyline
 66
     1
 10
0.0
 20
0.0
 30
0.0
  0
VERTEX
  5
416
330
415
100
AcDbEntity
  8
Information
370
     0
100
AcDbVertex
100
AcDb2dVertex
 10
33.65507172027903
 20
0.9687629968202852
 30
0.0
  0
VERTEX
  5
417
330
415
100
AcDbEntity
  8
Information
370
     0
100
AcDbVertex
100
AcDb2dVertex
 10
33.65507172027903
 20
0.9517223557866398
 30
0.0
  0
VERTEX
  5
418
330
415
100
AcDbEntity
  8
Information
370
     0
100
AcDbVertex
100
AcDb2dVertex
 10
33.61179691250681
 20
0.9318753759437438
 30
0.0
  0
VERTEX
  5
419
330
415
100
AcDbEntity
  8
Information
370
     0
100
AcDbVertex
100
AcDb2dVertex
 10
33.61179691250681
 20
0.8422909485381953
 30
0.0
  0
VERTEX
  5
41A
330
415
100
AcDbEntity
  8
Information
370
     0
100
AcDbVertex
100
AcDb2dVertex
 10
33.65507172027903
 20
0.8224439686952993
 30
0.0
  0
VERTEX
  5
41B
330
415
100
AcDbEntity
  8
Information
370
     0
100
AcDbVertex
100
AcDb2dVertex
 10
33.65507172027903
 20
0.806072940506005
 30
0.0
  0
VERTEX
  5
41C
330
415
100
AcDbEntity
  8
Information
370
     0
100
AcDbVertex
100
AcDb2dVertex
 10
33.597505132785
 20
0.832956602964815
 30
0.0
  0
VERTEX
  5
41D
330
415
100
AcDbEntity
  8
Information
370
     0
100
AcDbVertex
100
AcDb2dVertex
 10
33.597505132785
 20
0.9418778974240669
 30
0.0
  0
VERTEX
  5
41E
330
415
100
AcDbEntity
  8
Information
370
     0
100
AcDbVertex
100
AcDb2dVertex
 10
33.65507172027903
 20
0.9687629968202852
 30
0.0
  0
SEQEND
  5
41F
330
415
100
AcDbEntity
  8
Information
370
     0
  0
HATCH
  5
420
330
3DE
100
AcDbEntity
  8
Information
 62
   169
420
  1846073
100
AcDbHatch
 10
0.0
 20
0.0
 30
0.0
210
0.0
220
0.0
230
1.0
  2
SOLID
 70
     1
 71
     0
 91
        1
 92
        1
 93
        8
 72
     1
 10
33.65507172027903
 20
0.9687629968202852
 11
33.65507172027903
 21
0.9517223557866398
 72
     1
 10
33.65507172027903
 20
0.9517223557866398
 11
33.61179691250681
 21
0.9318753759437438
 72
     1
 10
33.61179691250681
 20
0.9318753759437438
 11
33.61179691250681
 21
0.8422909485381953
 72
     1
 10
33.61179691250681
 20
0.8422909485381953
 11
33.65507172027903
 21
0.8224439686952993
 72
     1
 10
33.65507172027903
 20
0.8224439686952993
 11
33.65507172027903
 21
0.806072940506005
 72
     1
 10
33.65507172027903
 20
0.806072940506005
 11
33.597505132785
 21
0.832956602964815
 72
     1
 10
33.597505132785
 20
0.832956602964815
 11
33.597505132785
 21
0.9418778974240669
 72
     1
 10
33.597505132785
 20
0.9418778974240669
 11
33.65507172027903
 21
0.9687629968202852
 97
        0
 75
     2
 76
     1
 98
        0
  0
INSERT
  5
422
330
3DE
100
AcDbEntity
  8
Information
100
AcDbBlockReference
  2
block 3
 10
0.0
 20
0.0
 30
0.0
  0
ENDBLK
  5
3E1
330
3DE
100
AcDbEntity
  8
0
100
AcDbBlockEnd
  0
BLOCK
  5
423
330
421
100
AcDbEntity
  8
0
100
AcDbBlockBegin
  2
block 3
 70
     0
 10
0.0
 20
0.0
 30
0.0
  3
block 3
  1

  0
POLYLINE
  5
425
330
421
100
AcDbEntity
  8
Information
370
     0
100
AcDb2dPolyline
 66
     1
 10
0.0
 20
0.0
 30
0.0
  0
VERTEX
  5
426
330
425
100
AcDbEntity
  8
Information
370
     0
100
AcDbVertex
100
AcDb2dVertex
 10
33.57551280535264
 20
0.9316081055809616
 30
0.0
  0
VERTEX
  5
427
330
425
100
AcDbEntity
  8
Information
370
     0
100
AcDbVertex
100
AcDb2dVertex
 10
33.57551280535264
 20
0.915083325086218
 30
0.0
  0
VERTEX
  5
428
330
425
100
AcDbEntity
  8
Information
370
     0
100
AcDbVertex
100
AcDb2dVertex
 10
33.51472029331873
 20
0.8871909325485426
 30
0.0
  0
VERTEX
  5
429
330
425
100
AcDbEntity
  8
Information
370
     0
100
AcDbVertex
100
AcDb2dVertex
 10
33.57551280535264
 20
0.8591447877053926
 30
0.0
  0
VERTEX
  5
42A
330
425
100
AcDbEntity
  8
Information
370
     0
100
AcDbVertex
100
AcDb2dVertex
 10
33.57551280535264
 20
0.8432278317453539
 30
0.0
  0
VERTEX
  5
42B
330
425
100
AcDbEntity
  8
Information
370
     0
100
AcDbVertex
100
AcDb2dVertex
 10
33.49549694432236
 20
0.8805968266624151
 30
0.0
  0
VERTEX
  5
42C
330
425
100
AcDbEntity
  8
Information
370
     0
100
AcDbVertex
100
AcDb2dVertex
 10
33.49549694432236
 20
0.8942391106639004
 30
0.0
  0
VERTEX
  5
42D
330
425
100
AcDbEntity
  8
Information
370
     0
100
AcDbVertex
100
AcDb2dVertex
 10
33.57551280535264
 20
0.9316081055809616
 30
0.0
  0
SEQEND
  5
42E
330
425
100
AcDbEntity
  8
Information
370
     0
  0
HATCH
  5
42F
330
421
100
AcDbEntity
  8
Information
 62
   142
420
    42979
100
AcDbHatch
 10
0.0
 20
0.0
 30
0.0
210
0.0
220
0.0
230
1.0
  2
SOLID
 70
     1
 71
     0
 91
        1
 92
        1
 93
        7
 72
     1
 10
33.57551280535264
 20
0.9316081055809616
 11
33.57551280535264
 21
0.915083325086218
 72
     1
 10
33.57551280535264
 20
0.915083325086218
 11
33.51472029331873
 21
0.8871909325485426
 72
     1
 10
33.51472029331873
 20
0.8871909325485426
 11
33.57551280535264
 21
0.8591447877053926
 72
     1
 10
33.57551280535264
 20
0.8591447877053926
 11
33.57551280535264
 21
0.8432278317453539
 72
     1
 10
33.57551280535264
 20
0.8432278317453539
 11
33.49549694432236
 21
0.8805968266624151
 72
     1
 10
33.49549694432236
 20
0.8805968266624151
 11
33.49549694432236
 21
0.8942391106639004
 72
     1
 10
33.49549694432236
 20
0.8942391106639004
 11
33.57551280535264
 21
0.9316081055809616
 97
        0
 75
     2
 76
     1
 98
        0
  0
ENDBLK
  5
424
330
421
100
AcDbEntity
  8
0
100
AcDbBlockEnd
  0
ENDSEC
  0
SECTION
  2
ENTITIES
  0
POLYLINE
  5
41
330
1F
100
AcDbEntity
  8
CADs
 62
     7
420
 16777215
370
    18
100
AcDb2dPolyline
 66
     1
 10
0.0
 20
0.0
 30
0.0
  0
VERTEX
  5
42
330
41
100
AcDbEntity
  8
CADs
 62
     7
420
 16777215
370
    18
100
AcDbVertex
100
AcDb2dVertex
 10
24.07527773572166
 20
6.079017353176027
 30
0.0
  0
VERTEX
  5
43
330
41
100
AcDbEntity
  8
CADs
 62
     7
420
 16777215
370
    18
100
AcDbVertex
100
AcDb2dVertex
 10
24.07527773572166
 20
2.682350932345394
 30
0.0
  0
SEQEND
  5
44
330
41
100
AcDbEntity
  8
CADs
 62
     7
420
 16777215
370
    18
  0
POLYLINE
  5
45
330
1F
100
AcDbEntity
  8
CADs
 62
     7
420
 16777215
370
    18
100
AcDb2dPolyline
 66
     1
 10
0.0
 20
0.0
 30
0.0
  0
VERTEX
  5
46
330
45
100
AcDbEntity
  8
CADs
 62
     7
420
 16777215
370
    18
100
AcDbVertex
100
AcDb2dVertex
 10
24.37861101819251
 20
2.682350932345394
 30
0.0
  0
VERTEX
  5
47
330
45
100
AcDbEntity
  8
CADs
 62
     7
420
 16777215
370
    18
100
AcDbVertex
100
AcDb2dVertex
 10
24.37861101819251
 20
6.079017353176027
 30
0.0
  0
SEQEND
  5
48
330
45
100
AcDbEntity
  8
CADs
 62
     7
420
 16777215
370
    18
  0
POLYLINE
  5
49
330
1F
100
AcDbEntity
  8
CADs
 62
     7
420
 16777215
370
    18
100
AcDb2dPolyline
 66
     1
 10
0.0
 20
0.0
 30
0.0
  0
VERTEX
  5
4A
330
49
100
AcDbEntity
  8
CADs
 62
     7
420
 16777215
370
    18
100
AcDbVertex
100
AcDb2dVertex
 10
24.14694445325098
 20
2.579017565103641
 30
0.0
  0
VERTEX
  5
4B
330
49
100
AcDbEntity
  8
CADs
 62
     7
420
 16777215
370
    18
100
AcDbVertex
100
AcDb2dVertex
 10
24.14694445325098
 20
6.079017353176027
 30
0.0
  0
VERTEX
  5
4C
330
49
100
AcDbEntity
  8
CADs
 62
     7
420
 16777215
370
    18
100
AcDbVertex
100
AcDb2dVertex
 10
24.12527782049278
 20
6.079017353176027
 30
0.0
  0
VERTEX
  5
4D
330
49
100
AcDbEntity
  8
CADs
 62
     7
420
 16777215
370
    18
100
AcDbVertex
100
AcDb2dVertex
 10
24.12527782049278
 20
2.579017565103641
 30
0.0
  0
VERTEX
  5
4E
330
49
100
AcDbEntity
  8
CADs
 62
     7
420
 16777215
370
    18
100
AcDbVertex
100
AcDb2dVertex
 10
24.14694445325098
 20
2.579017565103641
 30
0.0
  0
SEQEND
  5
4F
330
49
100
AcDbEntity
  8
CADs
 62
     7
420
 16777215
370
    18
  0
POLYLINE
  5
50
330
1F
100
AcDbEntity
  8
CADs
 62
     7
420
 16777215
370
    18
100
AcDb2dPolyline
 66
     1
 10
0.0
 20
0.0
 30
0.0
  0
VERTEX
  5
51
330
50
100
AcDbEntity
  8
CADs
 62
     7
420
 16777215
370
    18
100
AcDbVertex
100
AcDb2dVertex
 10
24.30694430066319
 20
6.079017353176027
 30
0.0
  0
VERTEX
  5
52
330
50
100
AcDbEntity
  8
CADs
 62
     7
420
 16777215
370
    18
100
AcDbVertex
100
AcDb2dVertex
 10
24.30694430066319
 20
2.579017565103641
 30
0.0
  0
SEQEND
  5
53
330
50
100
AcDbEntity
  8
CADs
 62
     7
420
 16777215
370
    18
  0
POLYLINE
  5
54
330
1F
100
AcDbEntity
  8
CADs
 62
     7
420
 16777215
370
    18
100
AcDb2dPolyline
 66
     1
 10
0.0
 20
0.0
 30
0.0
  0
VERTEX
  5
55
330
54
100
AcDbEntity
  8
CADs
 62
     7
420
 16777215
370
    18
100
AcDbVertex
100
AcDb2dVertex
 10
24.30694430066319
 20
6.079017353176027
 30
0.0
  0
VERTEX
  5
56
330
54
100
AcDbEntity
  8
CADs
 62
     7
420
 16777215
370
    18
100
AcDbVertex
100
AcDb2dVertex
 10
24.32861093342138
 20
6.079017353176027
 30
0.0
  0
VERTEX
  5
57
330
54
100
AcDbEntity
  8
CADs
 62
     7
420
 16777215
370
    18
100
AcDbVertex
100
AcDb2dVertex
 10
24.32861093342138
 20
2.579017565103641
 30
0.0
  0
VERTEX
  5
58
330
54
100
AcDbEntity
  8
CADs
 62
     7
420
 16777215
370
    18
100
AcDbVertex
100
AcDb2dVertex
 10
24.30694430066319
 20
2.579017565103641
 30
0.0
  0
SEQEND
  5
59
330
54
100
AcDbEntity
  8
CADs
 62
     7
420
 16777215
370
    18
  0
POLYLINE
  5
5A
330
1F
100
AcDbEntity
  8
CADs
 62
     7
420
 16777215
370
    18
100
AcDb2dPolyline
 66
     1
 10
0.0
 20
0.0
 30
0.0
  0
VERTEX
  5
5B
330
5A
100
AcDbEntity
  8
CADs
 62
     7
420
 16777215
370
    18
100
AcDbVertex
100
AcDb2dVertex
 10
24.22694458888473
 20
5.830684375881092
 30
0.0
  0
VERTEX
  5
5C
330
5A
100
AcDbEntity
  8
CADs
 62
     7
420
 16777215
370
    18
100
AcDbVertex
100
AcDb2dVertex
 10
24.22361096732985
 20
5.830684375881092
 30
0.0
  0
VERTEX
  5
5D
330
5A
100
AcDbEntity
  8
CADs
 62
     7
420
 16777215
370
    18
100
AcDbVertex
100
AcDb2dVertex
 10
24.22027776963013
 20
5.830684375881092
 30
0.0
  0
VERTEX
  5
5E
330
5A
100
AcDbEntity
  8
CADs
 62
     7
420
 16777215
370
    18
100
AcDbVertex
100
AcDb2dVertex
 10
24.21861117078027
 20
5.832350974730919
 30
0.0
  0
VERTEX
  5
5F
330
5A
100
AcDbEntity
  8
CADs
 62
     7
420
 16777215
370
    18
100
AcDbVertex
100
AcDb2dVertex
 10
24.21527754922542
 20
5.832350974730919
 30
0.0
  0
VERTEX
  5
60
330
5A
100
AcDbEntity
  8
CADs
 62
     7
420
 16777215
370
    18
100
AcDbVertex
100
AcDb2dVertex
 10
24.21194435152584
 20
5.834017573580746
 30
0.0
  0
VERTEX
  5
61
330
5A
100
AcDbEntity
  8
CADs
 62
     7
420
 16777215
370
    18
100
AcDbVertex
100
AcDb2dVertex
 10
24.21027775267597
 20
5.835684172430572
 30
0.0
  0
VERTEX
  5
62
330
5A
100
AcDbEntity
  8
CADs
 62
     7
420
 16777215
370
    18
100
AcDbVertex
100
AcDb2dVertex
 10
24.20694455497624
 20
5.837350771280398
 30
0.0
  0
VERTEX
  5
63
330
5A
100
AcDbEntity
  8
CADs
 62
     7
420
 16777215
370
    18
100
AcDbVertex
100
AcDb2dVertex
 10
24.20527753227124
 20
5.839017370130224
 30
0.0
  0
VERTEX
  5
64
330
5A
100
AcDbEntity
  8
CADs
 62
     7
420
 16777215
370
    18
100
AcDbVertex
100
AcDb2dVertex
 10
24.20361093342138
 20
5.840684392835302
 30
0.0
  0
VERTEX
  5
65
330
5A
100
AcDbEntity
  8
CADs
 62
     7
420
 16777215
370
    18
100
AcDbVertex
100
AcDb2dVertex
 10
24.20194433457153
 20
5.844017590534955
 30
0.0
  0
VERTEX
  5
66
330
5A
100
AcDbEntity
  8
CADs
 62
     7
420
 16777215
370
    18
100
AcDbVertex
100
AcDb2dVertex
 10
24.20027773572166
 20
5.845684189384782
 30
0.0
  0
VERTEX
  5
67
330
5A
100
AcDbEntity
  8
CADs
 62
     7
420
 16777215
370
    18
100
AcDbVertex
100
AcDb2dVertex
 10
24.19861113687193
 20
5.849017387084435
 30
0.0
  0
VERTEX
  5
68
330
5A
100
AcDbEntity
  8
CADs
 62
     7
420
 16777215
370
    18
100
AcDbVertex
100
AcDb2dVertex
 10
24.19861113687193
 20
5.85235100863934
 30
0.0
  0
VERTEX
  5
69
330
5A
100
AcDbEntity
  8
CADs
 62
     7
420
 16777215
370
    18
100
AcDbVertex
100
AcDb2dVertex
 10
24.19694453802208
 20
5.854017607489165
 30
0.0
  0
VERTEX
  5
6A
330
5A
100
AcDbEntity
  8
CADs
 62
     7
420
 16777215
370
    18
100
AcDbVertex
100
AcDb2dVertex
 10
24.19694453802208
 20
5.857350805188818
 30
0.0
  0
VERTEX
  5
6B
330
5A
100
AcDbEntity
  8
CADs
 62
     7
420
 16777215
370
    18
100
AcDbVertex
100
AcDb2dVertex
 10
24.19694453802208
 20
5.860684426743723
 30
0.0
  0
VERTEX
  5
6C
330
5A
100
AcDbEntity
  8
CADs
 62
     7
420
 16777215
370
    18
100
AcDbVertex
100
AcDb2dVertex
 10
24.19694453802208
 20
5.864017624443388
 30
0.0
  0
VERTEX
  5
6D
330
5A
100
AcDbEntity
  8
CADs
 62
     7
420
 16777215
370
    18
100
AcDbVertex
100
AcDb2dVertex
 10
24.19694453802208
 20
5.867350822143041
 30
0.0
  0
VERTEX
  5
6E
330
5A
100
AcDbEntity
  8
CADs
 62
     7
420
 16777215
370
    18
100
AcDbVertex
100
AcDb2dVertex
 10
24.19861113687193
 20
5.86901742099288
 30
0.0
  0
VERTEX
  5
6F
330
5A
100
AcDbEntity
  8
CADs
 62
     7
420
 16777215
370
    18
100
AcDbVertex
100
AcDb2dVertex
 10
24.19861113687193
 20
5.872351042547772
 30
0.0
  0
VERTEX
  5
70
330
5A
100
AcDbEntity
  8
CADs
 62
     7
420
 16777215
370
    18
100
AcDbVertex
100
AcDb2dVertex
 10
24.20027773572166
 20
5.875684240247424
 30
0.0
  0
VERTEX
  5
71
330
5A
100
AcDbEntity
  8
CADs
 62
     7
420
 16777215
370
    18
100
AcDbVertex
100
AcDb2dVertex
 10
24.20194433457153
 20
5.877350839097251
 30
0.0
  0
VERTEX
  5
72
330
5A
100
AcDbEntity
  8
CADs
 62
     7
420
 16777215
370
    18
100
AcDbVertex
100
AcDb2dVertex
 10
24.20361093342138
 20
5.880684036796904
 30
0.0
  0
VERTEX
  5
73
330
5A
100
AcDbEntity
  8
CADs
 62
     7
420
 16777215
370
    18
100
AcDbVertex
100
AcDb2dVertex
 10
24.20527753227124
 20
5.882351059501982
 30
0.0
  0
VERTEX
  5
74
330
5A
100
AcDbEntity
  8
CADs
 62
     7
420
 16777215
370
    18
100
AcDbVertex
100
AcDb2dVertex
 10
24.20694455497624
 20
5.884017658351809
 30
0.0
  0
VERTEX
  5
75
330
5A
100
AcDbEntity
  8
CADs
 62
     7
420
 16777215
370
    18
100
AcDbVertex
100
AcDb2dVertex
 10
24.21027775267597
 20
5.885684257201635
 30
0.0
  0
VERTEX
  5
76
330
5A
100
AcDbEntity
  8
CADs
 62
     7
420
 16777215
370
    18
100
AcDbVertex
100
AcDb2dVertex
 10
24.21194435152584
 20
5.887350856051461
 30
0.0
  0
VERTEX
  5
77
330
5A
100
AcDbEntity
  8
CADs
 62
     7
420
 16777215
370
    18
100
AcDbVertex
100
AcDb2dVertex
 10
24.21527754922542
 20
5.889017454901287
 30
0.0
  0
VERTEX
  5
78
330
5A
100
AcDbEntity
  8
CADs
 62
     7
420
 16777215
370
    18
100
AcDbVertex
100
AcDb2dVertex
 10
24.21861117078027
 20
5.890684053751114
 30
0.0
  0
VERTEX
  5
79
330
5A
100
AcDbEntity
  8
CADs
 62
     7
420
 16777215
370
    18
100
AcDbVertex
100
AcDb2dVertex
 10
24.22027776963013
 20
5.890684053751114
 30
0.0
  0
VERTEX
  5
7A
330
5A
100
AcDbEntity
  8
CADs
 62
     7
420
 16777215
370
    18
100
AcDbVertex
100
AcDb2dVertex
 10
24.22361096732985
 20
5.890684053751114
 30
0.0
  0
VERTEX
  5
7B
330
5A
100
AcDbEntity
  8
CADs
 62
     7
420
 16777215
370
    18
100
AcDbVertex
100
AcDb2dVertex
 10
24.22694458888473
 20
5.890684053751114
 30
0.0
  0
VERTEX
  5
7C
330
5A
100
AcDbEntity
  8
CADs
 62
     7
420
 16777215
370
    18
100
AcDbVertex
100
AcDb2dVertex
 10
24.23027778658431
 20
5.890684053751114
 30
0.0
  0
VERTEX
  5
7D
330
5A
100
AcDbEntity
  8
CADs
 62
     7
420
 16777215
370
    18
100
AcDbVertex
100
AcDb2dVertex
 10
24.23361098428404
 20
5.890684053751114
 30
0.0
  0
VERTEX
  5
7E
330
5A
100
AcDbEntity
  8
CADs
 62
     7
420
 16777215
370
    18
100
AcDbVertex
100
AcDb2dVertex
 10
24.23527758313389
 20
5.890684053751114
 30
0.0
  0
VERTEX
  5
7F
330
5A
100
AcDbEntity
  8
CADs
 62
     7
420
 16777215
370
    18
100
AcDbVertex
100
AcDb2dVertex
 10
24.23861120468874
 20
5.889017454901287
 30
0.0
  0
VERTEX
  5
80
330
5A
100
AcDbEntity
  8
CADs
 62
     7
420
 16777215
370
    18
100
AcDbVertex
100
AcDb2dVertex
 10
24.24194440238832
 20
5.887350856051461
 30
0.0
  0
VERTEX
  5
81
330
5A
100
AcDbEntity
  8
CADs
 62
     7
420
 16777215
370
    18
100
AcDbVertex
100
AcDb2dVertex
 10
24.2436110012382
 20
5.885684257201635
 30
0.0
  0
VERTEX
  5
82
330
5A
100
AcDbEntity
  8
CADs
 62
     7
420
 16777215
370
    18
100
AcDbVertex
100
AcDb2dVertex
 10
24.2469441989379
 20
5.884017658351809
 30
0.0
  0
VERTEX
  5
83
330
5A
100
AcDbEntity
  8
CADs
 62
     7
420
 16777215
370
    18
100
AcDbVertex
100
AcDb2dVertex
 10
24.24861122164291
 20
5.882351059501982
 30
0.0
  0
VERTEX
  5
84
330
5A
100
AcDbEntity
  8
CADs
 62
     7
420
 16777215
370
    18
100
AcDbVertex
100
AcDb2dVertex
 10
24.25027782049278
 20
5.880684036796904
 30
0.0
  0
VERTEX
  5
85
330
5A
100
AcDbEntity
  8
CADs
 62
     7
420
 16777215
370
    18
100
AcDbVertex
100
AcDb2dVertex
 10
24.25194441934264
 20
5.877350839097251
 30
0.0
  0
VERTEX
  5
86
330
5A
100
AcDbEntity
  8
CADs
 62
     7
420
 16777215
370
    18
100
AcDbVertex
100
AcDb2dVertex
 10
24.25361101819251
 20
5.875684240247424
 30
0.0
  0
VERTEX
  5
87
330
5A
100
AcDbEntity
  8
CADs
 62
     7
420
 16777215
370
    18
100
AcDbVertex
100
AcDb2dVertex
 10
24.25527761704221
 20
5.872351042547772
 30
0.0
  0
VERTEX
  5
88
330
5A
100
AcDbEntity
  8
CADs
 62
     7
420
 16777215
370
    18
100
AcDbVertex
100
AcDb2dVertex
 10
24.25527761704221
 20
5.86901742099288
 30
0.0
  0
VERTEX
  5
89
330
5A
100
AcDbEntity
  8
CADs
 62
     7
420
 16777215
370
    18
100
AcDbVertex
100
AcDb2dVertex
 10
24.25694421589209
 20
5.867350822143041
 30
0.0
  0
VERTEX
  5
8A
330
5A
100
AcDbEntity
  8
CADs
 62
     7
420
 16777215
370
    18
100
AcDbVertex
100
AcDb2dVertex
 10
24.25694421589209
 20
5.864017624443388
 30
0.0
  0
VERTEX
  5
8B
330
5A
100
AcDbEntity
  8
CADs
 62
     7
420
 16777215
370
    18
100
AcDbVertex
100
AcDb2dVertex
 10
24.25694421589209
 20
5.860684426743723
 30
0.0
  0
VERTEX
  5
8C
330
5A
100
AcDbEntity
  8
CADs
 62
     7
420
 16777215
370
    18
100
AcDbVertex
100
AcDb2dVertex
 10
24.25694421589209
 20
5.857350805188818
 30
0.0
  0
VERTEX
  5
8D
330
5A
100
AcDbEntity
  8
CADs
 62
     7
420
 16777215
370
    18
100
AcDbVertex
100
AcDb2dVertex
 10
24.25694421589209
 20
5.855684206338992
 30
0.0
  0
VERTEX
  5
8E
330
5A
100
AcDbEntity
  8
CADs
 62
     7
420
 16777215
370
    18
100
AcDbVertex
100
AcDb2dVertex
 10
24.25527761704221
 20
5.85235100863934
 30
0.0
  0
VERTEX
  5
8F
330
5A
100
AcDbEntity
  8
CADs
 62
     7
420
 16777215
370
    18
100
AcDbVertex
100
AcDb2dVertex
 10
24.25527761704221
 20
5.849017387084435
 30
0.0
  0
VERTEX
  5
90
330
5A
100
AcDbEntity
  8
CADs
 62
     7
420
 16777215
370
    18
100
AcDbVertex
100
AcDb2dVertex
 10
24.25361101819251
 20
5.845684189384782
 30
0.0
  0
VERTEX
  5
91
330
5A
100
AcDbEntity
  8
CADs
 62
     7
420
 16777215
370
    18
100
AcDbVertex
100
AcDb2dVertex
 10
24.25194441934264
 20
5.844017590534955
 30
0.0
  0
VERTEX
  5
92
330
5A
100
AcDbEntity
  8
CADs
 62
     7
420
 16777215
370
    18
100
AcDbVertex
100
AcDb2dVertex
 10
24.25027782049278
 20
5.842350991685129
 30
0.0
  0
VERTEX
  5
93
330
5A
100
AcDbEntity
  8
CADs
 62
     7
420
 16777215
370
    18
100
AcDbVertex
100
AcDb2dVertex
 10
24.24861122164291
 20
5.839017370130224
 30
0.0
  0
VERTEX
  5
94
330
5A
100
AcDbEntity
  8
CADs
 62
     7
420
 16777215
370
    18
100
AcDbVertex
100
AcDb2dVertex
 10
24.2469441989379
 20
5.837350771280398
 30
0.0
  0
VERTEX
  5
95
330
5A
100
AcDbEntity
  8
CADs
 62
     7
420
 16777215
370
    18
100
AcDbVertex
100
AcDb2dVertex
 10
24.2436110012382
 20
5.835684172430572
 30
0.0
  0
VERTEX
  5
96
330
5A
100
AcDbEntity
  8
CADs
 62
     7
420
 16777215
370
    18
100
AcDbVertex
100
AcDb2dVertex
 10
24.24194440238832
 20
5.834017573580746
 30
0.0
  0
VERTEX
  5
97
330
5A
100
AcDbEntity
  8
CADs
 62
     7
420
 16777215
370
    18
100
AcDbVertex
100
AcDb2dVertex
 10
24.23861120468874
 20
5.832350974730919
 30
0.0
  0
VERTEX
  5
98
330
5A
100
AcDbEntity
  8
CADs
 62
     7
420
 16777215
370
    18
100
AcDbVertex
100
AcDb2dVertex
 10
24.23527758313389
 20
5.832350974730919
 30
0.0
  0
VERTEX
  5
99
330
5A
100
AcDbEntity
  8
CADs
 62
     7
420
 16777215
370
    18
100
AcDbVertex
100
AcDb2dVertex
 10
24.23361098428404
 20
5.830684375881092
 30
0.0
  0
VERTEX
  5
9A
330
5A
100
AcDbEntity
  8
CADs
 62
     7
420
 16777215
370
    18
100
AcDbVertex
100
AcDb2dVertex
 10
24.23027778658431
 20
5.830684375881092
 30
0.0
  0
VERTEX
  5
9B
330
5A
100
AcDbEntity
  8
CADs
 62
     7
420
 16777215
370
    18
100
AcDbVertex
100
AcDb2dVertex
 10
24.22694458888473
 20
5.830684375881092
 30
0.0
  0
SEQEND
  5
9C
330
5A
100
AcDbEntity
  8
CADs
 62
     7
420
 16777215
370
    18
  0
POLYLINE
  5
9D
330
1F
100
AcDbEntity
  8
CADs
 62
     7
420
 16777215
370
    18
100
AcDb2dPolyline
 66
     1
 10
0.0
 20
0.0
 30
0.0
  0
VERTEX
  5
9E
330
9D
100
AcDbEntity
  8
CADs
 62
     7
420
 16777215
370
    18
100
AcDbVertex
100
AcDb2dVertex
 10
24.14694445325098
 20
6.079017353176027
 30
0.0
  0
VERTEX
  5
9F
330
9D
100
AcDbEntity
  8
CADs
 62
     7
420
 16777215
370
    18
100
AcDbVertex
100
AcDb2dVertex
 10
24.30694430066319
 20
6.079017353176027
 30
0.0
  0
SEQEND
  5
A0
330
9D
100
AcDbEntity
  8
CADs
 62
     7
420
 16777215
370
    18
  0
POLYLINE
  5
A1
330
1F
100
AcDbEntity
  8
CADs
 62
     7
420
 16777215
370
    18
100
AcDb2dPolyline
 66
     1
 10
0.0
 20
0.0
 30
0.0
  0
VERTEX
  5
A2
330
A1
100
AcDbEntity
  8
CADs
 62
     7
420
 16777215
370
    18
100
AcDbVertex
100
AcDb2dVertex
 10
24.12527782049278
 20
2.579017565103641
 30
0.0
  0
VERTEX
  5
A3
330
A1
100
AcDbEntity
  8
CADs
 62
     7
420
 16777215
370
    18
100
AcDbVertex
100
AcDb2dVertex
 10
24.12361122164291
 20
2.594017590534956
 30
0.0
  0
VERTEX
  5
A4
330
A1
100
AcDbEntity
  8
CADs
 62
     7
420
 16777215
370
    18
100
AcDbVertex
100
AcDb2dVertex
 10
24.12027760008805
 20
2.609017615966271
 30
0.0
  0
VERTEX
  5
A5
330
A1
100
AcDbEntity
  8
CADs
 62
     7
420
 16777215
370
    18
100
AcDbVertex
100
AcDb2dVertex
 10
24.11694440238832
 20
2.62235104254776
 30
0.0
  0
VERTEX
  5
A6
330
A1
100
AcDbEntity
  8
CADs
 62
     7
420
 16777215
370
    18
100
AcDbVertex
100
AcDb2dVertex
 10
24.11027758313389
 20
2.634017658351796
 30
0.0
  0
VERTEX
  5
A7
330
A1
100
AcDbEntity
  8
CADs
 62
     7
420
 16777215
370
    18
100
AcDbVertex
100
AcDb2dVertex
 10
24.10361118773459
 20
2.644017675306006
 30
0.0
  0
VERTEX
  5
A8
330
A1
100
AcDbEntity
  8
CADs
 62
     7
420
 16777215
370
    18
100
AcDbVertex
100
AcDb2dVertex
 10
24.09527776963013
 20
2.650684282632938
 30
0.0
  0
VERTEX
  5
A9
330
A1
100
AcDbEntity
  8
CADs
 62
     7
420
 16777215
370
    18
100
AcDbVertex
100
AcDb2dVertex
 10
24.08694435152584
 20
2.655684291110042
 30
0.0
  0
VERTEX
  5
AA
330
A1
100
AcDbEntity
  8
CADs
 62
     7
420
 16777215
370
    18
100
AcDbVertex
100
AcDb2dVertex
 10
24.07861093342138
 20
2.659017700737321
 30
0.0
  0
VERTEX
  5
AB
330
A1
100
AcDbEntity
  8
CADs
 62
     7
420
 16777215
370
    18
100
AcDbVertex
100
AcDb2dVertex
 10
24.07861093342138
 20
6.079017353176027
 30
0.0
  0
VERTEX
  5
AC
330
A1
100
AcDbEntity
  8
CADs
 62
     7
420
 16777215
370
    18
100
AcDbVertex
100
AcDb2dVertex
 10
24.12527782049278
 20
6.079017353176027
 30
0.0
  0
SEQEND
  5
AD
330
A1
100
AcDbEntity
  8
CADs
 62
     7
420
 16777215
370
    18
  0
POLYLINE
  5
AE
330
1F
100
AcDbEntity
  8
CADs
 62
     7
420
 16777215
370
    18
100
AcDb2dPolyline
 66
     1
 10
0.0
 20
0.0
 30
0.0
  0
VERTEX
  5
AF
330
AE
100
AcDbEntity
  8
CADs
 62
     7
420
 16777215
370
    18
100
AcDbVertex
100
AcDb2dVertex
 10
24.32861093342138
 20
6.079017353176027
 30
0.0
  0
VERTEX
  5
B0
330
AE
100
AcDbEntity
  8
CADs
 62
     7
420
 16777215
370
    18
100
AcDbVertex
100
AcDb2dVertex
 10
24.37527782049278
 20
6.079017353176027
 30
0.0
  0
VERTEX
  5
B1
330
AE
100
AcDbEntity
  8
CADs
 62
     7
420
 16777215
370
    18
100
AcDbVertex
100
AcDb2dVertex
 10
24.37527782049278
 20
2.659017700737321
 30
0.0
  0
VERTEX
  5
B2
330
AE
100
AcDbEntity
  8
CADs
 62
     7
420
 16777215
370
    18
100
AcDbVertex
100
AcDb2dVertex
 10
24.36694440238832
 20
2.655684291110042
 30
0.0
  0
VERTEX
  5
B3
330
AE
100
AcDbEntity
  8
CADs
 62
     7
420
 16777215
370
    18
100
AcDbVertex
100
AcDb2dVertex
 10
24.35694438543416
 20
2.650684282632938
 30
0.0
  0
VERTEX
  5
B4
330
AE
100
AcDbEntity
  8
CADs
 62
     7
420
 16777215
370
    18
100
AcDbVertex
100
AcDb2dVertex
 10
24.35027756617958
 20
2.644017675306006
 30
0.0
  0
VERTEX
  5
B5
330
AE
100
AcDbEntity
  8
CADs
 62
     7
420
 16777215
370
    18
100
AcDbVertex
100
AcDb2dVertex
 10
24.34361117078027
 20
2.634017658351796
 30
0.0
  0
VERTEX
  5
B6
330
AE
100
AcDbEntity
  8
CADs
 62
     7
420
 16777215
370
    18
100
AcDbVertex
100
AcDb2dVertex
 10
24.33694435152584
 20
2.62235104254776
 30
0.0
  0
VERTEX
  5
B7
330
AE
100
AcDbEntity
  8
CADs
 62
     7
420
 16777215
370
    18
100
AcDbVertex
100
AcDb2dVertex
 10
24.33361115382612
 20
2.609017615966271
 30
0.0
  0
VERTEX
  5
B8
330
AE
100
AcDbEntity
  8
CADs
 62
     7
420
 16777215
370
    18
100
AcDbVertex
100
AcDb2dVertex
 10
24.33027753227124
 20
2.594017590534956
 30
0.0
  0
VERTEX
  5
B9
330
AE
100
AcDbEntity
  8
CADs
 62
     7
420
 16777215
370
    18
100
AcDbVertex
100
AcDb2dVertex
 10
24.32861093342138
 20
2.579017565103641
 30
0.0
  0
SEQEND
  5
BA
330
AE
100
AcDbEntity
  8
CADs
 62
     7
420
 16777215
370
    18
  0
POLYLINE
  5
BB
330
1F
100
AcDbEntity
  8
CADs
 62
     7
420
 16777215
370
    18
100
AcDb2dPolyline
 66
     1
 10
0.0
 20
0.0
 30
0.0
  0
VERTEX
  5
BC
330
BB
100
AcDbEntity
  8
CADs
 62
     7
420
 16777215
370
    18
100
AcDbVertex
100
AcDb2dVertex
 10
24.07527773572166
 20
2.682350932345394
 30
0.0
  0
VERTEX
  5
BD
330
BB
100
AcDbEntity
  8
CADs
 62
     7
420
 16777215
370
    18
100
AcDbVertex
100
AcDb2dVertex
 10
24.07527773572166
 20
2.675684325018463
 30
0.0
  0
VERTEX
  5
BE
330
BB
100
AcDbEntity
  8
CADs
 62
     7
420
 16777215
370
    18
100
AcDbVertex
100
AcDb2dVertex
 10
24.07527773572166
 20
2.670684316541358
 30
0.0
  0
VERTEX
  5
BF
330
BB
100
AcDbEntity
  8
CADs
 62
     7
420
 16777215
370
    18
100
AcDbVertex
100
AcDb2dVertex
 10
24.07694433457153
 20
2.664017709214426
 30
0.0
  0
VERTEX
  5
C0
330
BB
100
AcDbEntity
  8
CADs
 62
     7
420
 16777215
370
    18
100
AcDbVertex
100
AcDb2dVertex
 10
24.07861093342138
 20
2.659017700737321
 30
0.0
  0
SEQEND
  5
C1
330
BB
100
AcDbEntity
  8
CADs
 62
     7
420
 16777215
370
    18
  0
POLYLINE
  5
C2
330
1F
100
AcDbEntity
  8
CADs
 62
     7
420
 16777215
370
    18
100
AcDb2dPolyline
 66
     1
 10
0.0
 20
0.0
 30
0.0
  0
VERTEX
  5
C3
330
C2
100
AcDbEntity
  8
CADs
 62
     7
420
 16777215
370
    18
100
AcDbVertex
100
AcDb2dVertex
 10
24.07527773572166
 20
6.079017353176027
 30
0.0
  0
VERTEX
  5
C4
330
C2
100
AcDbEntity
  8
CADs
 62
     7
420
 16777215
370
    18
100
AcDbVertex
100
AcDb2dVertex
 10
24.07861093342138
 20
6.079017353176027
 30
0.0
  0
SEQEND
  5
C5
330
C2
100
AcDbEntity
  8
CADs
 62
     7
420
 16777215
370
    18
  0
POLYLINE
  5
C6
330
1F
100
AcDbEntity
  8
CADs
 62
     7
420
 16777215
370
    18
100
AcDb2dPolyline
 66
     1
 10
0.0
 20
0.0
 30
0.0
  0
VERTEX
  5
C7
330
C6
100
AcDbEntity
  8
CADs
 62
     7
420
 16777215
370
    18
100
AcDbVertex
100
AcDb2dVertex
 10
24.37527782049278
 20
2.659017700737321
 30
0.0
  0
VERTEX
  5
C8
330
C6
100
AcDbEntity
  8
CADs
 62
     7
420
 16777215
370
    18
100
AcDbVertex
100
AcDb2dVertex
 10
24.37694441934264
 20
2.664017709214426
 30
0.0
  0
VERTEX
  5
C9
330
C6
100
AcDbEntity
  8
CADs
 62
     7
420
 16777215
370
    18
100
AcDbVertex
100
AcDb2dVertex
 10
24.37861101819251
 20
2.670684316541358
 30
0.0
  0
VERTEX
  5
CA
330
C6
100
AcDbEntity
  8
CADs
 62
     7
420
 16777215
370
    18
100
AcDbVertex
100
AcDb2dVertex
 10
24.37861101819251
 20
2.675684325018463
 30
0.0
  0
VERTEX
  5
CB
330
C6
100
AcDbEntity
  8
CADs
 62
     7
420
 16777215
370
    18
100
AcDbVertex
100
AcDb2dVertex
 10
24.37861101819251
 20
2.682350932345394
 30
0.0
  0
SEQEND
  5
CC
330
C6
100
AcDbEntity
  8
CADs
 62
     7
420
 16777215
370
    18
  0
POLYLINE
  5
CD
330
1F
100
AcDbEntity
  8
CADs
 62
     7
420
 16777215
370
    18
100
AcDb2dPolyline
 66
     1
 10
0.0
 20
0.0
 30
0.0
  0
VERTEX
  5
CE
330
CD
100
AcDbEntity
  8
CADs
 62
     7
420
 16777215
370
    18
100
AcDbVertex
100
AcDb2dVertex
 10
24.37527782049278
 20
6.079017353176027
 30
0.0
  0
VERTEX
  5
CF
330
CD
100
AcDbEntity
  8
CADs
 62
     7
420
 16777215
370
    18
100
AcDbVertex
100
AcDb2dVertex
 10
24.37861101819251
 20
6.079017353176027
 30
0.0
  0
SEQEND
  5
D0
330
CD
100
AcDbEntity
  8
CADs
 62
     7
420
 16777215
370
    18
  0
POLYLINE
  5
D1
330
1F
100
AcDbEntity
  8
CADs
 62
     7
420
 16777215
370
    18
100
AcDb2dPolyline
 66
     1
 10
0.0
 20
0.0
 30
0.0
  0
VERTEX
  5
D2
330
D1
100
AcDbEntity
  8
CADs
 62
     7
420
 16777215
370
    18
100
AcDbVertex
100
AcDb2dVertex
 10
24.20694455497624
 20
5.884017658351809
 30
0.0
  0
VERTEX
  5
D3
330
D1
100
AcDbEntity
  8
CADs
 62
     7
420
 16777215
370
    18
100
AcDbVertex
100
AcDb2dVertex
 10
24.20694455497624
 20
5.837350771280398
 30
0.0
  0
SEQEND
  5
D4
330
D1
100
AcDbEntity
  8
CADs
 62
     7
420
 16777215
370
    18
  0
POLYLINE
  5
D5
330
1F
100
AcDbEntity
  8
CADs
 62
     7
420
 16777215
370
    18
100
AcDb2dPolyline
 66
     1
 10
0.0
 20
0.0
 30
0.0
  0
VERTEX
  5
D6
330
D5
100
AcDbEntity
  8
CADs
 62
     7
420
 16777215
370
    18
100
AcDbVertex
100
AcDb2dVertex
 10
24.2469441989379
 20
5.884017658351809
 30
0.0
  0
VERTEX
  5
D7
330
D5
100
AcDbEntity
  8
CADs
 62
     7
420
 16777215
370
    18
100
AcDbVertex
100
AcDb2dVertex
 10
24.2469441989379
 20
5.837350771280398
 30
0.0
  0
SEQEND
  5
D8
330
D5
100
AcDbEntity
  8
CADs
 62
     7
420
 16777215
370
    18
  0
POLYLINE
  5
D9
330
1F
100
AcDbEntity
  8
CADs
 62
     7
420
 16777215
370
    18
100
AcDb2dPolyline
 66
     1
 10
0.0
 20
0.0
 30
0.0
  0
VERTEX
  5
DA
330
D9
100
AcDbEntity
  8
CADs
 62
     7
420
 16777215
370
    18
100
AcDbVertex
100
AcDb2dVertex
 10
24.14027763399652
 20
6.78735068650936
 30
0.0
  0
VERTEX
  5
DB
330
D9
100
AcDbEntity
  8
CADs
 62
     7
420
 16777215
370
    18
100
AcDbVertex
100
AcDb2dVertex
 10
24.13027761704221
 20
6.739017624443388
 30
0.0
  0
SEQEND
  5
DC
330
D9
100
AcDbEntity
  8
CADs
 62
     7
420
 16777215
370
    18
  0
SPLINE
  5
DD
330
1F
100
AcDbEntity
  8
CADs
 62
     7
420
 16777215
370
    18
100
AcDbSpline
210
0.0
220
0.0
230
1.0
 70
     8
 71
     3
 72
     8
 73
     4
 74
     0
 42
0.0000000001
 43
0.0000000001
 12
1.0
 22
0.0
 32
0.0
 13
1.0
 23
0.0
 33
0.0
 40
0.0
 40
0.0
 40
0.0
 40
0.0
 40
1.0
 40
1.0
 40
1.0
 40
1.0
 10
24.13065611978209
 20
6.739886527709447
 30
0.0
 10
24.12792903509237
 20
6.726668177828805
 30
0.0
 10
24.12792903509237
 20
6.713032754380454
 30
0.0
 10
24.13065611978209
 20
6.699814404499825
 30
0.0
  0
POLYLINE
  5
DE
330
1F
100
AcDbEntity
  8
CADs
 62
     7
420
 16777215
370
    18
100
AcDb2dPolyline
 66
     1
 10
0.0
 20
0.0
 30
0.0
  0
VERTEX
  5
DF
330
DE
100
AcDbEntity
  8
CADs
 62
     7
420
 16777215
370
    18
100
AcDbVertex
100
AcDb2dVertex
 10
24.13027761704221
 20
6.69901755662656
 30
0.0
  0
VERTEX
  5
E0
330
DE
100
AcDbEntity
  8
CADs
 62
     7
420
 16777215
370
    18
100
AcDbVertex
100
AcDb2dVertex
 10
24.14027763399652
 20
6.650684494560588
 30
0.0
  0
SEQEND
  5
E1
330
DE
100
AcDbEntity
  8
CADs
 62
     7
420
 16777215
370
    18
  0
SPLINE
  5
E2
330
1F
100
AcDbEntity
  8
CADs
 62
     7
420
 16777215
370
    18
100
AcDbSpline
210
0.0
220
0.0
230
1.0
 70
     8
 71
     3
 72
     8
 73
     4
 74
     0
 42
0.0000000001
 43
0.0000000001
 12
1.0
 22
0.0
 32
0.0
 13
1.0
 23
0.0
 33
0.0
 40
0.0
 40
0.0
 40
0.0
 40
0.0
 40
1.0
 40
1.0
 40
1.0
 40
1.0
 10
24.14077566391721
 20
6.651634778034968
 30
0.0
 10
24.14272582193055
 20
6.642183653631768
 30
0.0
 10
24.15011065198152
 20
6.634798399725518
 30
0.0
 10
24.15956177638473
 20
6.632848665567533
 30
0.0
  0
POLYLINE
  5
E3
330
1F
100
AcDbEntity
  8
CADs
 62
     7
420
 16777215
370
    18
100
AcDb2dPolyline
 66
     1
 10
0.0
 20
0.0
 30
0.0
  0
VERTEX
  5
E4
330
E3
100
AcDbEntity
  8
CADs
 62
     7
420
 16777215
370
    18
100
AcDbVertex
100
AcDb2dVertex
 10
24.15861106905499
 20
6.632351059501982
 30
0.0
  0
VERTEX
  5
E5
330
E3
100
AcDbEntity
  8
CADs
 62
     7
420
 16777215
370
    18
100
AcDbVertex
100
AcDb2dVertex
 10
24.20694455497624
 20
6.622350618692533
 30
0.0
  0
SEQEND
  5
E6
330
E3
100
AcDbEntity
  8
CADs
 62
     7
420
 16777215
370
    18
  0
SPLINE
  5
E7
330
1F
100
AcDbEntity
  8
CADs
 62
     7
420
 16777215
370
    18
100
AcDbSpline
210
0.0
220
0.0
230
1.0
 70
     8
 71
     3
 72
     8
 73
     4
 74
     0
 42
0.0000000001
 43
0.0000000001
 12
1.0
 22
0.0
 32
0.0
 13
1.0
 23
0.0
 33
0.0
 40
0.0
 40
0.0
 40
0.0
 40
0.0
 40
1.0
 40
1.0
 40
1.0
 40
1.0
 10
24.20774140284958
 20
6.622728697577069
 30
0.0
 10
24.22095975273015
 20
6.620002460597902
 30
0.0
 10
24.23459517617862
 20
6.620002460597902
 30
0.0
 10
24.24781352605916
 20
6.622728697577069
 30
0.0
  0
POLYLINE
  5
E8
330
1F
100
AcDbEntity
  8
CADs
 62
     7
420
 16777215
370
    18
100
AcDb2dPolyline
 66
     1
 10
0.0
 20
0.0
 30
0.0
  0
VERTEX
  5
E9
330
E8
100
AcDbEntity
  8
CADs
 62
     7
420
 16777215
370
    18
100
AcDbVertex
100
AcDb2dVertex
 10
24.2469441989379
 20
6.622350618692533
 30
0.0
  0
VERTEX
  5
EA
330
E8
100
AcDbEntity
  8
CADs
 62
     7
420
 16777215
370
    18
100
AcDbVertex
100
AcDb2dVertex
 10
24.29527768485918
 20
6.632351059501982
 30
0.0
  0
SEQEND
  5
EB
330
E8
100
AcDbEntity
  8
CADs
 62
     7
420
 16777215
370
    18
  0
SPLINE
  5
EC
330
1F
100
AcDbEntity
  8
CADs
 62
     7
420
 16777215
370
    18
100
AcDbSpline
210
0.0
220
0.0
230
1.0
 70
     8
 71
     3
 72
     8
 73
     4
 74
     0
 42
0.0000000001
 43
0.0000000001
 12
1.0
 22
0.0
 32
0.0
 13
1.0
 23
0.0
 33
0.0
 40
0.0
 40
0.0
 40
0.0
 40
0.0
 40
1.0
 40
1.0
 40
1.0
 40
1.0
 10
24.29599357637931
 20
6.632848665567533
 30
0.0
 10
24.30544470078249
 20
6.634798399725518
 30
0.0
 10
24.31282953083347
 20
6.642183653631768
 30
0.0
 10
24.31477926499153
 20
6.651634778034968
 30
0.0
  0
POLYLINE
  5
ED
330
1F
100
AcDbEntity
  8
CADs
 62
     7
420
 16777215
370
    18
100
AcDb2dPolyline
 66
     1
 10
0.0
 20
0.0
 30
0.0
  0
VERTEX
  5
EE
330
ED
100
AcDbEntity
  8
CADs
 62
     7
420
 16777215
370
    18
100
AcDbVertex
100
AcDb2dVertex
 10
24.31361111991765
 20
6.650684494560588
 30
0.0
  0
VERTEX
  5
EF
330
ED
100
AcDbEntity
  8
CADs
 62
     7
420
 16777215
370
    18
100
AcDbVertex
100
AcDb2dVertex
 10
24.32361113687193
 20
6.69901755662656
 30
0.0
  0
SEQEND
  5
F0
330
ED
100
AcDbEntity
  8
CADs
 62
     7
420
 16777215
370
    18
  0
SPLINE
  5
F1
330
1F
100
AcDbEntity
  8
CADs
 62
     7
420
 16777215
370
    18
100
AcDbSpline
210
0.0
220
0.0
230
1.0
 70
     8
 71
     3
 72
     8
 73
     4
 74
     0
 42
0.0000000001
 43
0.0000000001
 12
1.0
 22
0.0
 32
0.0
 13
1.0
 23
0.0
 33
0.0
 40
0.0
 40
0.0
 40
0.0
 40
0.0
 40
1.0
 40
1.0
 40
1.0
 40
1.0
 10
24.32489880912665
 20
6.699814404499825
 30
0.0
 10
24.32762546996112
 20
6.713032754380454
 30
0.0
 10
24.32762546996112
 20
6.726668177828805
 30
0.0
 10
24.32489880912665
 20
6.739886527709447
 30
0.0
  0
POLYLINE
  5
F2
330
1F
100
AcDbEntity
  8
CADs
 62
     7
420
 16777215
370
    18
100
AcDb2dPolyline
 66
     1
 10
0.0
 20
0.0
 30
0.0
  0
VERTEX
  5
F3
330
F2
100
AcDbEntity
  8
CADs
 62
     7
420
 16777215
370
    18
100
AcDbVertex
100
AcDb2dVertex
 10
24.32361113687193
 20
6.739017624443388
 30
0.0
  0
VERTEX
  5
F4
330
F2
100
AcDbEntity
  8
CADs
 62
     7
420
 16777215
370
    18
100
AcDbVertex
100
AcDb2dVertex
 10
24.31361111991765
 20
6.78735068650936
 30
0.0
  0
SEQEND
  5
F5
330
F2
100
AcDbEntity
  8
CADs
 62
     7
420
 16777215
370
    18
  0
SPLINE
  5
F6
330
1F
100
AcDbEntity
  8
CADs
 62
     7
420
 16777215
370
    18
100
AcDbSpline
210
0.0
220
0.0
230
1.0
 70
     8
 71
     3
 72
     8
 73
     4
 74
     0
 42
0.0000000001
 43
0.0000000001
 12
1.0
 22
0.0
 32
0.0
 13
1.0
 23
0.0
 33
0.0
 40
0.0
 40
0.0
 40
0.0
 40
0.0
 40
1.0
 40
1.0
 40
1.0
 40
1.0
 10
24.31477926499153
 20
6.788066154174291
 30
0.0
 10
24.31282953083347
 20
6.797518126288018
 30
0.0
 10
24.30544470078249
 20
6.804902532483752
 30
0.0
 10
24.29599357637931
 20
6.806852266641739
 30
0.0
  0
POLYLINE
  5
F7
330
1F
100
AcDbEntity
  8
CADs
 62
     7
420
 16777215
370
    18
100
AcDb2dPolyline
 66
     1
 10
0.0
 20
0.0
 30
0.0
  0
VERTEX
  5
F8
330
F7
100
AcDbEntity
  8
CADs
 62
     7
420
 16777215
370
    18
100
AcDbVertex
100
AcDb2dVertex
 10
24.29527768485918
 20
6.805684121567954
 30
0.0
  0
VERTEX
  5
F9
330
F7
100
AcDbEntity
  8
CADs
 62
     7
420
 16777215
370
    18
100
AcDbVertex
100
AcDb2dVertex
 10
24.2469441989379
 20
6.815684562377416
 30
0.0
  0
SEQEND
  5
FA
330
F7
100
AcDbEntity
  8
CADs
 62
     7
420
 16777215
370
    18
  0
SPLINE
  5
FB
330
1F
100
AcDbEntity
  8
CADs
 62
     7
420
 16777215
370
    18
100
AcDbSpline
210
0.0
220
0.0
230
1.0
 70
     8
 71
     3
 72
     8
 73
     4
 74
     0
 42
0.0000000001
 43
0.0000000001
 12
1.0
 22
0.0
 32
0.0
 13
1.0
 23
0.0
 33
0.0
 40
0.0
 40
0.0
 40
0.0
 40
0.0
 40
1.0
 40
1.0
 40
1.0
 40
1.0
 10
24.24781352605916
 20
6.81697223463219
 30
0.0
 10
24.23459517617862
 20
6.81969931932186
 30
0.0
 10
24.22095975273015
 20
6.81969931932186
 30
0.0
 10
24.20774140284958
 20
6.81697223463219
 30
0.0
  0
POLYLINE
  5
FC
330
1F
100
AcDbEntity
  8
CADs
 62
     7
420
 16777215
370
    18
100
AcDb2dPolyline
 66
     1
 10
0.0
 20
0.0
 30
0.0
  0
VERTEX
  5
FD
330
FC
100
AcDbEntity
  8
CADs
 62
     7
420
 16777215
370
    18
100
AcDbVertex
100
AcDb2dVertex
 10
24.20694455497624
 20
6.815684562377416
 30
0.0
  0
VERTEX
  5
FE
330
FC
100
AcDbEntity
  8
CADs
 62
     7
420
 16777215
370
    18
100
AcDbVertex
100
AcDb2dVertex
 10
24.15861106905499
 20
6.805684121567954
 30
0.0
  0
SEQEND
  5
FF
330
FC
100
AcDbEntity
  8
CADs
 62
     7
420
 16777215
370
    18
  0
SPLINE
  5
100
330
1F
100
AcDbEntity
  8
CADs
 62
     7
420
 16777215
370
    18
100
AcDbSpline
210
0.0
220
0.0
230
1.0
 70
     8
 71
     3
 72
     8
 73
     4
 74
     0
 42
0.0000000001
 43
0.0000000001
 12
1.0
 22
0.0
 32
0.0
 13
1.0
 23
0.0
 33
0.0
 40
0.0
 40
0.0
 40
0.0
 40
0.0
 40
1.0
 40
1.0
 40
1.0
 40
1.0
 10
24.15956177638473
 20
6.806852266641739
 30
0.0
 10
24.15011065198152
 20
6.804902532483752
 30
0.0
 10
24.14272582193055
 20
6.797518126288018
 30
0.0
 10
24.14077566391721
 20
6.788066154174291
 30
0.0
  0
SPLINE
  5
101
330
1F
100
AcDbEntity
  8
CADs
 62
     7
420
 16777215
370
    18
100
AcDbSpline
210
0.0
220
0.0
230
1.0
 70
     8
 71
     3
 72
     8
 73
     4
 74
     0
 42
0.0000000001
 43
0.0000000001
 12
1.0
 22
0.0
 32
0.0
 13
1.0
 23
0.0
 33
0.0
 40
0.0
 40
0.0
 40
0.0
 40
0.0
 40
1.0
 40
1.0
 40
1.0
 40
1.0
 10
24.37746448973651
 20
6.800354565632624
 30
0.0
 10
24.35899287786583
 20
6.748274623141305
 30
0.0
 10
24.35899287786583
 20
6.691427156778458
 30
0.0
 10
24.37746448973651
 20
6.639347214287138
 30
0.0
  0
SPLINE
  5
102
330
1F
100
AcDbEntity
  8
CADs
 62
     7
420
 16777215
370
    18
100
AcDbSpline
210
0.0
220
0.0
230
1.0
 70
     8
 71
     3
 72
     8
 73
     4
 74
     0
 42
0.0000000001
 43
0.0000000001
 12
1.0
 22
0.0
 32
0.0
 13
1.0
 23
0.0
 33
0.0
 40
0.0
 40
0.0
 40
0.0
 40
0.0
 40
1.0
 40
1.0
 40
1.0
 40
1.0
 10
24.37599455972347
 20
6.617783154499825
 30
0.0
 10
24.38040562132834
 20
6.624167262301461
 30
0.0
 10
24.38148136595722
 20
6.632281547240697
 30
0.0
 10
24.37888694796124
 20
6.639595593464655
 30
0.0
  0
SPLINE
  5
103
330
1F
100
AcDbEntity
  8
CADs
 62
     7
420
 16777215
370
    18
100
AcDbSpline
210
0.0
220
0.0
230
1.0
 70
     8
 71
     3
 72
     8
 73
     4
 74
     0
 42
0.0000000001
 43
0.0000000001
 12
1.0
 22
0.0
 32
0.0
 13
1.0
 23
0.0
 33
0.0
 40
0.0
 40
0.0
 40
0.0
 40
0.0
 40
1.0
 40
1.0
 40
1.0
 40
1.0
 10
24.37498790350054
 20
6.617271137355727
 30
0.0
 10
24.35002961085737
 20
6.615853765393922
 30
0.0
 10
24.33010756631529
 20
6.595932568562325
 30
0.0
 10
24.32869019435348
 20
6.570972580498088
 30
0.0
  0
SPLINE
  5
104
330
1F
100
AcDbEntity
  8
CADs
 62
     7
420
 16777215
370
    18
100
AcDbSpline
210
0.0
220
0.0
230
1.0
 70
     8
 71
     3
 72
     8
 73
     4
 74
     0
 42
0.0000000001
 43
0.0000000001
 12
1.0
 22
0.0
 32
0.0
 13
1.0
 23
0.0
 33
0.0
 40
0.0
 40
0.0
 40
0.0
 40
0.0
 40
1.0
 40
1.0
 40
1.0
 40
1.0
 10
24.30803233709429
 20
6.568740982597685
 30
0.0
 10
24.31534638331833
 20
6.56614698845706
 30
0.0
 10
24.32346109211277
 20
6.567222733085966
 30
0.0
 10
24.32984562376972
 20
6.57163294698028
 30
0.0
  0
SPLINE
  5
105
330
1F
100
AcDbEntity
  8
CADs
 62
     7
420
 16777215
370
    18
100
AcDbSpline
210
0.0
220
0.0
230
1.0
 70
     8
 71
     3
 72
     8
 73
     4
 74
     0
 42
0.0000000001
 43
0.0000000001
 12
1.0
 22
0.0
 32
0.0
 13
1.0
 23
0.0
 33
0.0
 40
0.0
 40
0.0
 40
0.0
 40
0.0
 40
1.0
 40
1.0
 40
1.0
 40
1.0
 10
24.30828114012709
 20
6.570163864677763
 30
0.0
 10
24.25620119763582
 20
6.588635476548435
 30
0.0
 10
24.19935373127292
 20
6.588635476548435
 30
0.0
 10
24.14727378878165
 20
6.570163864677763
 30
0.0
  0
SPLINE
  5
106
330
1F
100
AcDbEntity
  8
CADs
 62
     7
420
 16777215
370
    18
100
AcDbSpline
210
0.0
220
0.0
230
1.0
 70
     8
 71
     3
 72
     8
 73
     4
 74
     0
 42
0.0000000001
 43
0.0000000001
 12
1.0
 22
0.0
 32
0.0
 13
1.0
 23
0.0
 33
0.0
 40
0.0
 40
0.0
 40
0.0
 40
0.0
 40
1.0
 40
1.0
 40
1.0
 40
1.0
 10
24.12570930513903
 20
6.57163294698028
 30
0.0
 10
24.13209426065125
 20
6.567222733085966
 30
0.0
 10
24.14020854559041
 20
6.56614698845706
 30
0.0
 10
24.14752259181445
 20
6.568740982597685
 30
0.0
  0
SPLINE
  5
107
330
1F
100
AcDbEntity
  8
CADs
 62
     7
420
 16777215
370
    18
100
AcDbSpline
210
0.0
220
0.0
230
1.0
 70
     8
 71
     3
 72
     8
 73
     4
 74
     0
 42
0.0000000001
 43
0.0000000001
 12
1.0
 22
0.0
 32
0.0
 13
1.0
 23
0.0
 33
0.0
 40
0.0
 40
0.0
 40
0.0
 40
0.0
 40
1.0
 40
1.0
 40
1.0
 40
1.0
 10
24.12519855956068
 20
6.570972580498088
 30
0.0
 10
24.12378033988832
 20
6.595932568562325
 30
0.0
 10
24.10385871920153
 20
6.615853765393922
 30
0.0
 10
24.07890000270304
 20
6.617271137355727
 30
0.0
  0
SPLINE
  5
108
330
1F
100
AcDbEntity
  8
CADs
 62
     7
420
 16777215
370
    18
100
AcDbSpline
210
0.0
220
0.0
230
1.0
 70
     8
 71
     3
 72
     8
 73
     4
 74
     0
 42
0.0000000001
 43
0.0000000001
 12
1.0
 22
0.0
 32
0.0
 13
1.0
 23
0.0
 33
0.0
 40
0.0
 40
0.0
 40
0.0
 40
0.0
 40
1.0
 40
1.0
 40
1.0
 40
1.0
 10
24.07666755709223
 20
6.639595593464655
 30
0.0
 10
24.07407356295153
 20
6.632281547240697
 30
0.0
 10
24.07514973143568
 20
6.624167262301461
 30
0.0
 10
24.07955994533
 20
6.617783154499825
 30
0.0
  0
SPLINE
  5
109
330
1F
100
AcDbEntity
  8
CADs
 62
     7
420
 16777215
370
    18
100
AcDbSpline
210
0.0
220
0.0
230
1.0
 70
     8
 71
     3
 72
     8
 73
     4
 74
     0
 42
0.0000000001
 43
0.0000000001
 12
1.0
 22
0.0
 32
0.0
 13
1.0
 23
0.0
 33
0.0
 40
0.0
 40
0.0
 40
0.0
 40
0.0
 40
1.0
 40
1.0
 40
1.0
 40
1.0
 10
24.07809043917223
 20
6.639347214287138
 30
0.0
 10
24.09656205104291
 20
6.691427156778458
 30
0.0
 10
24.09656205104291
 20
6.748274623141305
 30
0.0
 10
24.07809043917223
 20
6.800354565632624
 30
0.0
  0
SPLINE
  5
10A
330
1F
100
AcDbEntity
  8
CADs
 62
     7
420
 16777215
370
    18
100
AcDbSpline
210
0.0
220
0.0
230
1.0
 70
     8
 71
     3
 72
     8
 73
     4
 74
     0
 42
0.0000000001
 43
0.0000000001
 12
1.0
 22
0.0
 32
0.0
 13
1.0
 23
0.0
 33
0.0
 40
0.0
 40
0.0
 40
0.0
 40
0.0
 40
1.0
 40
1.0
 40
1.0
 40
1.0
 10
24.07955994533
 20
6.821918625419963
 30
0.0
 10
24.07514973143568
 20
6.81553366990781
 30
0.0
 10
24.07407356295153
 20
6.807419384968575
 30
0.0
 10
24.07666755709223
 20
6.800105338744616
 30
0.0
  0
SPLINE
  5
10B
330
1F
100
AcDbEntity
  8
CADs
 62
     7
420
 16777215
370
    18
100
AcDbSpline
210
0.0
220
0.0
230
1.0
 70
     8
 71
     3
 72
     8
 73
     4
 74
     0
 42
0.0000000001
 43
0.0000000001
 12
1.0
 22
0.0
 32
0.0
 13
1.0
 23
0.0
 33
0.0
 40
0.0
 40
0.0
 40
0.0
 40
0.0
 40
1.0
 40
1.0
 40
1.0
 40
1.0
 10
24.07890000270304
 20
6.820763196003718
 30
0.0
 10
24.10385871920153
 20
6.822181415676027
 30
0.0
 10
24.12378033988832
 20
6.842102612507624
 30
0.0
 10
24.12519855956068
 20
6.867061752861357
 30
0.0
  0
SPLINE
  5
10C
330
1F
100
AcDbEntity
  8
CADs
 62
     7
420
 16777215
370
    18
100
AcDbSpline
210
0.0
220
0.0
230
1.0
 70
     8
 71
     3
 72
     8
 73
     4
 74
     0
 42
0.0000000001
 43
0.0000000001
 12
1.0
 22
0.0
 32
0.0
 13
1.0
 23
0.0
 33
0.0
 40
0.0
 40
0.0
 40
0.0
 40
0.0
 40
1.0
 40
1.0
 40
1.0
 40
1.0
 10
24.14727378878165
 20
6.869537915241999
 30
0.0
 10
24.19935373127292
 20
6.851066303371352
 30
0.0
 10
24.25620119763582
 20
6.851066303371352
 30
0.0
 10
24.30828114012709
 20
6.869537915241999
 30
0.0
  0
SPLINE
  5
10D
330
1F
100
AcDbEntity
  8
CADs
 62
     7
420
 16777215
370
    18
100
AcDbSpline
210
0.0
220
0.0
230
1.0
 70
     8
 71
     3
 72
     8
 73
     4
 74
     0
 42
0.0000000001
 43
0.0000000001
 12
1.0
 22
0.0
 32
0.0
 13
1.0
 23
0.0
 33
0.0
 40
0.0
 40
0.0
 40
0.0
 40
0.0
 40
1.0
 40
1.0
 40
1.0
 40
1.0
 10
24.32984562376972
 20
6.868067985228991
 30
0.0
 10
24.32346109211277
 20
6.872478622978544
 30
0.0
 10
24.31534638331833
 20
6.873554367607463
 30
0.0
 10
24.30803233709429
 20
6.870960373466838
 30
0.0
  0
SPLINE
  5
10E
330
1F
100
AcDbEntity
  8
CADs
 62
     7
420
 16777215
370
    18
100
AcDbSpline
210
0.0
220
0.0
230
1.0
 70
     8
 71
     3
 72
     8
 73
     4
 74
     0
 42
0.0000000001
 43
0.0000000001
 12
1.0
 22
0.0
 32
0.0
 13
1.0
 23
0.0
 33
0.0
 40
0.0
 40
0.0
 40
0.0
 40
0.0
 40
1.0
 40
1.0
 40
1.0
 40
1.0
 10
24.32869019435348
 20
6.867061752861357
 30
0.0
 10
24.33010756631529
 20
6.842102612507624
 30
0.0
 10
24.35002961085737
 20
6.822181415676027
 30
0.0
 10
24.37498790350054
 20
6.820763196003718
 30
0.0
  0
SPLINE
  5
10F
330
1F
100
AcDbEntity
  8
CADs
 62
     7
420
 16777215
370
    18
100
AcDbSpline
210
0.0
220
0.0
230
1.0
 70
     8
 71
     3
 72
     8
 73
     4
 74
     0
 42
0.0000000001
 43
0.0000000001
 12
1.0
 22
0.0
 32
0.0
 13
1.0
 23
0.0
 33
0.0
 40
0.0
 40
0.0
 40
0.0
 40
0.0
 40
1.0
 40
1.0
 40
1.0
 40
1.0
 10
24.37888694796124
 20
6.800105338744616
 30
0.0
 10
24.38148136595722
 20
6.807419384968575
 30
0.0
 10
24.38040562132834
 20
6.81553366990781
 30
0.0
 10
24.37599455972347
 20
6.821918625419963
 30
0.0
  0
SPLINE
  5
110
330
1F
100
AcDbEntity
  8
CADs
 62
     7
420
 16777215
370
    18
100
AcDbSpline
210
0.0
220
0.0
230
1.0
 70
     8
 71
     3
 72
     8
 73
     4
 74
     0
 42
0.0000000001
 43
0.0000000001
 12
1.0
 22
0.0
 32
0.0
 13
1.0
 23
0.0
 33
0.0
 40
0.0
 40
0.0
 40
0.0
 40
0.0
 40
1.0
 40
1.0
 40
1.0
 40
1.0
 10
24.14752259181445
 20
6.870960373466838
 30
0.0
 10
24.14020854559041
 20
6.873554367607463
 30
0.0
 10
24.13209426065125
 20
6.872478622978544
 30
0.0
 10
24.12570930513903
 20
6.868067985228991
 30
0.0
  0
POLYLINE
  5
111
330
1F
100
AcDbEntity
  8
CADs
 62
     7
420
 16777215
370
    13
100
AcDb2dPolyline
 66
     1
 10
0.0
 20
0.0
 30
0.0
  0
VERTEX
  5
112
330
111
100
AcDbEntity
  8
CADs
 62
     7
420
 16777215
370
    13
100
AcDbVertex
100
AcDb2dVertex
 10
25.32027751531695
 20
6.261784070705339
 30
0.0
  0
VERTEX
  5
113
330
111
100
AcDbEntity
  8
CADs
 62
     7
420
 16777215
370
    13
100
AcDbVertex
100
AcDb2dVertex
 10
24.78194404635001
 20
6.261784070705339
 30
0.0
  0
VERTEX
  5
114
330
111
100
AcDbEntity
  8
CADs
 62
     7
420
 16777215
370
    13
100
AcDbVertex
100
AcDb2dVertex
 10
24.26171654890542
 20
5.872425252362025
 30
0.0
  0
SEQEND
  5
115
330
111
100
AcDbEntity
  8
CADs
 62
     7
420
 16777215
370
    13
  0
MTEXT
  5
116
330
1F
100
AcDbEntity
  8
CADs
 62
     7
420
 16777215
100
AcDbMText
 10
24.80634562174479
 20
6.289020750257704
 30
0.0
 40
0.0480802816549937
 41
0.0
 46
0.0
 71
     7
 72
     1
  1
\fGotham Light|b0|i0|c0|p34;\W1;3/8-16 UNC 2B
 73
     1
 44
1.0
  0
POLYLINE
  5
117
330
1F
100
AcDbEntity
  8
CADs
 62
     7
420
 16777215
370
    25
100
AcDb2dPolyline
 66
     1
 10
0.0
 20
0.0
 30
0.0
  0
VERTEX
  5
118
330
117
100
AcDbEntity
  8
CADs
 62
     7
420
 16777215
370
    25
100
AcDbVertex
100
AcDb2dVertex
 10
24.20861115382612
 20
5.860684426743723
 30
0.0
  0
VERTEX
  5
119
330
117
100
AcDbEntity
  8
CADs
 62
     7
420
 16777215
370
    25
100
AcDbVertex
100
AcDb2dVertex
 10
24.2436110012382
 20
5.860684426743723
 30
0.0
  0
SEQEND
  5
11A
330
117
100
AcDbEntity
  8
CADs
 62
     7
420
 16777215
370
    25
  0
POLYLINE
  5
11B
330
1F
100
AcDbEntity
  8
CADs
 62
     7
420
 16777215
370
    25
100
AcDb2dPolyline
 66
     1
 10
0.0
 20
0.0
 30
0.0
  0
VERTEX
  5
11C
330
11B
100
AcDbEntity
  8
CADs
 62
     7
420
 16777215
370
    25
100
AcDbVertex
100
AcDb2dVertex
 10
24.22694458888473
 20
5.844017590534955
 30
0.0
  0
VERTEX
  5
11D
330
11B
100
AcDbEntity
  8
CADs
 62
     7
420
 16777215
370
    25
100
AcDbVertex
100
AcDb2dVertex
 10
24.22694458888473
 20
5.879017437947078
 30
0.0
  0
SEQEND
  5
11E
330
11B
100
AcDbEntity
  8
CADs
 62
     7
420
 16777215
370
    25
  0
POLYLINE
  5
11F
330
1F
100
AcDbEntity
  8
CADs
 62
     7
420
 16777215
370
    25
100
AcDb2dPolyline
 66
     1
 10
0.0
 20
0.0
 30
0.0
  0
VERTEX
  5
120
330
11F
100
AcDbEntity
  8
CADs
 62
     7
420
 16777215
370
    25
100
AcDbVertex
100
AcDb2dVertex
 10
24.21694457193055
 20
5.860684426743723
 30
0.0
  0
VERTEX
  5
121
330
11F
100
AcDbEntity
  8
CADs
 62
     7
420
 16777215
370
    25
100
AcDbVertex
100
AcDb2dVertex
 10
23.78694426675472
 20
5.860684426743723
 30
0.0
  0
SEQEND
  5
122
330
11F
100
AcDbEntity
  8
CADs
 62
     7
420
 16777215
370
    25
  0
POLYLINE
  5
123
330
1F
100
AcDbEntity
  8
CADs
 62
     7
420
 16777215
370
    25
100
AcDb2dPolyline
 66
     1
 10
0.0
 20
0.0
 30
0.0
  0
VERTEX
  5
124
330
123
100
AcDbEntity
  8
CADs
 62
     7
420
 16777215
370
    25
100
AcDbVertex
100
AcDb2dVertex
 10
24.21694457193055
 20
6.079017353176027
 30
0.0
  0
VERTEX
  5
125
330
123
100
AcDbEntity
  8
CADs
 62
     7
420
 16777215
370
    25
100
AcDbVertex
100
AcDb2dVertex
 10
23.78694426675472
 20
6.079017353176027
 30
0.0
  0
SEQEND
  5
126
330
123
100
AcDbEntity
  8
CADs
 62
     7
420
 16777215
370
    25
  0
POLYLINE
  5
127
330
1F
100
AcDbEntity
  8
CADs
 62
     7
420
 16777215
370
    13
100
AcDb2dPolyline
 66
     1
 10
0.0
 20
0.0
 30
0.0
  0
VERTEX
  5
128
330
127
100
AcDbEntity
  8
CADs
 62
     7
420
 16777215
370
    13
100
AcDbVertex
100
AcDb2dVertex
 10
23.79819823272944
 20
5.866691318961911
 30
0.0
  0
VERTEX
  5
129
330
127
100
AcDbEntity
  8
CADs
 62
     7
420
 16777215
370
    13
100
AcDbVertex
100
AcDb2dVertex
 10
23.79819823272944
 20
5.925821874961596
 30
0.0
  0
SEQEND
  5
12A
330
127
100
AcDbEntity
  8
CADs
 62
     7
420
 16777215
370
    13
  0
POLYLINE
  5
12B
330
1F
100
AcDbEntity
  8
CADs
 62
     7
420
 16777215
370
    13
100
AcDb2dPolyline
 66
     1
 10
0.0
 20
0.0
 30
0.0
  0
VERTEX
  5
12C
330
12B
100
AcDbEntity
  8
CADs
 62
     7
420
 16777215
370
    13
100
AcDbVertex
100
AcDb2dVertex
 10
23.79819823272944
 20
6.073877445819713
 30
0.0
  0
VERTEX
  5
12D
330
12B
100
AcDbEntity
  8
CADs
 62
     7
420
 16777215
370
    13
100
AcDbVertex
100
AcDb2dVertex
 10
23.79819823272944
 20
6.010821807144755
 30
0.0
  0
SEQEND
  5
12E
330
12B
100
AcDbEntity
  8
CADs
 62
     7
420
 16777215
370
    13
  0
MTEXT
  5
12F
330
1F
100
AcDbEntity
  8
CADs
 62
     7
420
 16777215
100
AcDbMText
 10
23.58137681749132
 20
5.945470015207926
 30
0.0
 40
0.0480802816549937
 41
0.0
 46
0.0
 71
     7
 72
     1
  1
\fGotham Light|b0|i0|c0|p34;\W1;1.125 [28.58]
 73
     1
 44
1.0
  0
POLYLINE
  5
130
330
1F
100
AcDbEntity
  8
CADs
 62
     7
420
 16777215
370
    13
100
AcDb2dPolyline
 66
     1
 10
0.0
 20
0.0
 30
0.0
  0
VERTEX
  5
131
330
130
100
AcDbEntity
  8
CADs
 62
     7
420
 16777215
370
    13
100
AcDbVertex
100
AcDb2dVertex
 10
23.25636689275055
 20
6.44901755662656
 30
0.0
  0
VERTEX
  5
132
330
130
100
AcDbEntity
  8
CADs
 62
     7
420
 16777215
370
    13
100
AcDbVertex
100
AcDb2dVertex
 10
23.79694428370888
 20
6.44901755662656
 30
0.0
  0
VERTEX
  5
133
330
130
100
AcDbEntity
  8
CADs
 62
     7
420
 16777215
370
    13
100
AcDbVertex
100
AcDb2dVertex
 10
24.02089134610027
 20
6.541766411269779
 30
0.0
  0
SEQEND
  5
134
330
130
100
AcDbEntity
  8
CADs
 62
     7
420
 16777215
370
    13
  0
MTEXT
  5
135
330
1F
100
AcDbEntity
  8
CADs
 62
     7
420
 16777215
100
AcDbMText
 10
23.26637437608507
 20
6.474018308851454
 30
0.0
 40
0.0480802816549937
 41
0.0
 46
0.0
 71
     7
 72
     1
  1
\fGotham Light|b0|i0|c0|p34;\W1;R0.250 [R6.35]
 73
     1
 44
1.0
  0
POLYLINE
  5
136
330
1F
100
AcDbEntity
  8
CADs
 62
     7
420
 16777215
370
    25
100
AcDb2dPolyline
 66
     1
 10
0.0
 20
0.0
 30
0.0
  0
VERTEX
  5
137
330
136
100
AcDbEntity
  8
CADs
 62
     7
420
 16777215
370
    25
100
AcDbVertex
100
AcDb2dVertex
 10
24.05861089951291
 20
6.56735073737199
 30
0.0
  0
VERTEX
  5
138
330
136
100
AcDbEntity
  8
CADs
 62
     7
420
 16777215
370
    25
100
AcDbVertex
100
AcDb2dVertex
 10
24.09361117078027
 20
6.56735073737199
 30
0.0
  0
SEQEND
  5
139
330
136
100
AcDbEntity
  8
CADs
 62
     7
420
 16777215
370
    25
  0
POLYLINE
  5
13A
330
1F
100
AcDbEntity
  8
CADs
 62
     7
420
 16777215
370
    25
100
AcDb2dPolyline
 66
     1
 10
0.0
 20
0.0
 30
0.0
  0
VERTEX
  5
13B
330
13A
100
AcDbEntity
  8
CADs
 62
     7
420
 16777215
370
    25
100
AcDbVertex
100
AcDb2dVertex
 10
24.07527773572166
 20
6.550684325018475
 30
0.0
  0
VERTEX
  5
13C
330
13A
100
AcDbEntity
  8
CADs
 62
     7
420
 16777215
370
    25
100
AcDbVertex
100
AcDb2dVertex
 10
24.07527773572166
 20
6.585683748575333
 30
0.0
  0
SEQEND
  5
13D
330
13A
100
AcDbEntity
  8
CADs
 62
     7
420
 16777215
370
    25
  0
SPLINE
  5
13E
330
1F
100
AcDbEntity
  8
CADs
 62
     7
420
 16777215
370
    25
100
AcDbSpline
210
0.0
220
0.0
230
1.0
 70
     8
 71
     3
 72
    11
 73
     7
 74
     0
 42
0.0000000001
 43
0.0000000001
 12
1.0
 22
0.0
 32
0.0
 13
1.0
 23
0.0
 33
0.0
 40
0.0
 40
0.0
 40
0.0
 40
0.0
 40
1.0
 40
1.0
 40
1.0
 40
2.0
 40
2.0
 40
2.0
 40
2.0
 10
24.07116973062193
 20
6.617101595255033
 30
0.0
 10
24.05423205090723
 20
6.615390915459013
 30
0.0
 10
24.03938397758374
 20
6.605039522501114
 30
0.0
 10
24.03192073431112
 20
6.589739195623944
 30
0.0
 10
24.0244574910386
 20
6.574438021036283
 30
0.0
 10
24.02544041136737
 20
6.556364833102255
 30
0.0
 10
24.03451939085959
 20
6.541963503214005
 30
0.0
  0
POLYLINE
  5
13F
330
1F
100
AcDbEntity
  8
CADs
 62
     7
420
 16777215
370
    13
100
AcDb2dPolyline
 66
     1
 10
0.0
 20
0.0
 30
0.0
  0
VERTEX
  5
140
330
13F
100
AcDbEntity
  8
CADs
 62
     7
420
 16777215
370
    13
100
AcDbVertex
100
AcDb2dVertex
 10
23.39856844107362
 20
6.269017675306018
 30
0.0
  0
VERTEX
  5
141
330
13F
100
AcDbEntity
  8
CADs
 62
     7
420
 16777215
370
    13
100
AcDbVertex
100
AcDb2dVertex
 10
24.05811875016138
 20
6.269017675306018
 30
0.0
  0
VERTEX
  5
142
330
13F
100
AcDbEntity
  8
CADs
 62
     7
420
 16777215
370
    13
100
AcDbVertex
100
AcDb2dVertex
 10
24.1348054896493
 20
6.557821424790126
 30
0.0
  0
SEQEND
  5
143
330
13F
100
AcDbEntity
  8
CADs
 62
     7
420
 16777215
370
    13
  0
MTEXT
  5
144
330
1F
100
AcDbEntity
  8
CADs
 62
     7
420
 16777215
100
AcDbMText
 10
23.40301174587674
 20
6.294018851386176
 30
0.0
 40
0.0480802816549937
 41
0.0
 46
0.0
 71
     7
 72
     1
  1
\fGotham Light|b0|i0|c0|p34;\W1;8 X R0.125 [R3.18]
 73
     1
 44
1.0
  0
POLYLINE
  5
145
330
1F
100
AcDbEntity
  8
CADs
 62
     7
420
 16777215
370
    25
100
AcDb2dPolyline
 66
     1
 10
0.0
 20
0.0
 30
0.0
  0
VERTEX
  5
146
330
145
100
AcDbEntity
  8
CADs
 62
     7
420
 16777215
370
    25
100
AcDbVertex
100
AcDb2dVertex
 10
24.12027760008805
 20
6.590684392835315
 30
0.0
  0
VERTEX
  5
147
330
145
100
AcDbEntity
  8
CADs
 62
     7
420
 16777215
370
    25
100
AcDbVertex
100
AcDb2dVertex
 10
24.15527787135541
 20
6.590684392835315
 30
0.0
  0
SEQEND
  5
148
330
145
100
AcDbEntity
  8
CADs
 62
     7
420
 16777215
370
    25
  0
POLYLINE
  5
149
330
1F
100
AcDbEntity
  8
CADs
 62
     7
420
 16777215
370
    25
100
AcDb2dPolyline
 66
     1
 10
0.0
 20
0.0
 30
0.0
  0
VERTEX
  5
14A
330
149
100
AcDbEntity
  8
CADs
 62
     7
420
 16777215
370
    25
100
AcDbVertex
100
AcDb2dVertex
 10
24.13861103514667
 20
6.57401755662656
 30
0.0
  0
VERTEX
  5
14B
330
149
100
AcDbEntity
  8
CADs
 62
     7
420
 16777215
370
    25
100
AcDbVertex
100
AcDb2dVertex
 10
24.13861103514667
 20
6.609017827893922
 30
0.0
  0
SEQEND
  5
14C
330
149
100
AcDbEntity
  8
CADs
 62
     7
420
 16777215
370
    25
  0
POLYLINE
  5
14D
330
1F
100
AcDbEntity
  8
CADs
 62
     7
420
 16777215
370
    13
100
AcDb2dPolyline
 66
     1
 10
0.0
 20
0.0
 30
0.0
  0
VERTEX
  5
14E
330
14D
100
AcDbEntity
  8
CADs
 62
     7
420
 16777215
370
    13
100
AcDbVertex
100
AcDb2dVertex
 10
25.13250990127097
 20
6.380684036796904
 30
0.0
  0
VERTEX
  5
14F
330
14D
100
AcDbEntity
  8
CADs
 62
     7
420
 16777215
370
    13
100
AcDbVertex
100
AcDb2dVertex
 10
24.60194458888473
 20
6.380684036796904
 30
0.0
  0
VERTEX
  5
150
330
14D
100
AcDbEntity
  8
CADs
 62
     7
420
 16777215
370
    13
100
AcDbVertex
100
AcDb2dVertex
 10
24.47578339584334
 20
6.365161262545952
 30
0.0
  0
SEQEND
  5
151
330
14D
100
AcDbEntity
  8
CADs
 62
     7
420
 16777215
370
    13
  0
MTEXT
  5
152
330
1F
100
AcDbEntity
  8
CADs
 62
     7
420
 16777215
100
AcDbMText
 10
24.6225094265408
 20
6.407354354858398
 30
0.0
 40
0.0480802816549937
 41
0.0
 46
0.0
 71
     7
 72
     1
  1
\fGotham Light|b0|i0|c0|p34;\W1;R1.235 [R31.37]
 73
     1
 44
1.0
  0
POLYLINE
  5
153
330
1F
100
AcDbEntity
  8
CADs
 62
     7
420
 16777215
370
    25
100
AcDb2dPolyline
 66
     1
 10
0.0
 20
0.0
 30
0.0
  0
VERTEX
  5
154
330
153
100
AcDbEntity
  8
CADs
 62
     7
420
 16777215
370
    25
100
AcDbVertex
100
AcDb2dVertex
 10
24.20861115382612
 20
6.342350991685142
 30
0.0
  0
VERTEX
  5
155
330
153
100
AcDbEntity
  8
CADs
 62
     7
420
 16777215
370
    25
100
AcDbVertex
100
AcDb2dVertex
 10
24.2436110012382
 20
6.342350991685142
 30
0.0
  0
SEQEND
  5
156
330
153
100
AcDbEntity
  8
CADs
 62
     7
420
 16777215
370
    25
  0
POLYLINE
  5
157
330
1F
100
AcDbEntity
  8
CADs
 62
     7
420
 16777215
370
    25
100
AcDb2dPolyline
 66
     1
 10
0.0
 20
0.0
 30
0.0
  0
VERTEX
  5
158
330
157
100
AcDbEntity
  8
CADs
 62
     7
420
 16777215
370
    25
100
AcDbVertex
100
AcDb2dVertex
 10
24.22694458888473
 20
6.32401755662656
 30
0.0
  0
VERTEX
  5
159
330
157
100
AcDbEntity
  8
CADs
 62
     7
420
 16777215
370
    25
100
AcDbVertex
100
AcDb2dVertex
 10
24.22694458888473
 20
6.359017404038657
 30
0.0
  0
SEQEND
  5
15A
330
157
100
AcDbEntity
  8
CADs
 62
     7
420
 16777215
370
    25
  0
SPLINE
  5
15B
330
1F
100
AcDbEntity
  8
CADs
 62
     7
420
 16777215
370
    25
100
AcDbSpline
210
0.0
220
0.0
230
1.0
 70
     8
 71
     3
 72
     8
 73
     4
 74
     0
 42
0.0000000001
 43
0.0000000001
 12
1.0
 22
0.0
 32
0.0
 13
1.0
 23
0.0
 33
0.0
 40
0.0
 40
0.0
 40
0.0
 40
0.0
 40
1.0
 40
1.0
 40
1.0
 40
1.0
 10
24.46795800983735
 20
6.360900592922121
 30
0.0
 10
24.46113733112654
 20
6.453369702351374
 30
0.0
 10
24.40183828598765
 20
6.533711041462702
 30
0.0
 10
24.31548540784082
 20
6.567478741658014
 30
0.0
  0
SPLINE
  5
15C
330
1F
100
AcDbEntity
  8
CADs
 62
     7
420
 16777215
370
    25
100
AcDbSpline
210
0.0
220
0.0
230
1.0
 70
     8
 71
     3
 72
     8
 73
     4
 74
     0
 42
0.0000000001
 43
0.0000000001
 12
1.0
 22
0.0
 32
0.0
 13
1.0
 23
0.0
 33
0.0
 40
0.0
 40
0.0
 40
0.0
 40
0.0
 40
1.0
 40
1.0
 40
1.0
 40
1.0
 10
24.40694489406057
 20
6.719850889959893
 30
0.0
 10
24.40694489406057
 20
6.735509798380033
 30
0.0
 10
24.40489173922111
 20
6.751102585380888
 30
0.0
 10
24.40083798759348
 20
6.766227436183852
 30
0.0
  0
POLYLINE
  5
15D
330
1F
100
AcDbEntity
  8
CADs
 62
     7
420
 16777215
370
    25
100
AcDb2dPolyline
 66
     1
 10
0.0
 20
0.0
 30
0.0
  0
VERTEX
  5
15E
330
15D
100
AcDbEntity
  8
CADs
 62
     7
420
 16777215
370
    25
100
AcDbVertex
100
AcDb2dVertex
 10
24.39694445325098
 20
6.774017895710749
 30
0.0
  0
VERTEX
  5
15F
330
15D
100
AcDbEntity
  8
CADs
 62
     7
420
 16777215
370
    25
100
AcDbVertex
100
AcDb2dVertex
 10
24.3936112555514
 20
6.782350889959893
 30
0.0
  0
SEQEND
  5
160
330
15D
100
AcDbEntity
  8
CADs
 62
     7
420
 16777215
370
    25
  0
POLYLINE
  5
161
330
1F
100
AcDbEntity
  8
CADs
 62
     7
420
 16777215
370
    25
100
AcDb2dPolyline
 66
     1
 10
0.0
 20
0.0
 30
0.0
  0
VERTEX
  5
162
330
161
100
AcDbEntity
  8
CADs
 62
     7
420
 16777215
370
    25
100
AcDbVertex
100
AcDb2dVertex
 10
24.39027721014125
 20
6.792350483058852
 30
0.0
  0
VERTEX
  5
163
330
161
100
AcDbEntity
  8
CADs
 62
     7
420
 16777215
370
    25
100
AcDbVertex
100
AcDb2dVertex
 10
24.38527783744694
 20
6.800684325018475
 30
0.0
  0
SEQEND
  5
164
330
161
100
AcDbEntity
  8
CADs
 62
     7
420
 16777215
370
    25
  0
SPLINE
  5
165
330
1F
100
AcDbEntity
  8
CADs
 62
     7
420
 16777215
370
    25
100
AcDbSpline
210
0.0
220
0.0
230
1.0
 70
     8
 71
     3
 72
     8
 73
     4
 74
     0
 42
0.0000000001
 43
0.0000000001
 12
1.0
 22
0.0
 32
0.0
 13
1.0
 23
0.0
 33
0.0
 40
0.0
 40
0.0
 40
0.0
 40
0.0
 40
1.0
 40
1.0
 40
1.0
 40
1.0
 10
24.38294281886513
 20
6.809428458861791
 30
0.0
 10
24.37511421236556
 20
6.822990979206843
 30
0.0
 10
24.36554059379457
 20
6.835467582396947
 30
0.0
 10
24.35446737534307
 20
6.846541224703805
 30
0.0
  0
POLYLINE
  5
166
330
1F
100
AcDbEntity
  8
CADs
 62
     7
420
 16777215
370
    25
100
AcDb2dPolyline
 66
     1
 10
0.0
 20
0.0
 30
0.0
  0
VERTEX
  5
167
330
166
100
AcDbEntity
  8
CADs
 62
     7
420
 16777215
370
    25
100
AcDbVertex
100
AcDb2dVertex
 10
24.34694436848
 20
6.852351432494616
 30
0.0
  0
VERTEX
  5
168
330
166
100
AcDbEntity
  8
CADs
 62
     7
420
 16777215
370
    25
100
AcDbVertex
100
AcDb2dVertex
 10
24.33861095037554
 20
6.857351229044083
 30
0.0
  0
SEQEND
  5
169
330
166
100
AcDbEntity
  8
CADs
 62
     7
420
 16777215
370
    25
  0
POLYLINE
  5
16A
330
1F
100
AcDbEntity
  8
CADs
 62
     7
420
 16777215
370
    25
100
AcDb2dPolyline
 66
     1
 10
0.0
 20
0.0
 30
0.0
  0
VERTEX
  5
16B
330
16A
100
AcDbEntity
  8
CADs
 62
     7
420
 16777215
370
    25
100
AcDbVertex
100
AcDb2dVertex
 10
24.33194455497624
 20
6.864017624443388
 30
0.0
  0
VERTEX
  5
16C
330
16A
100
AcDbEntity
  8
CADs
 62
     7
420
 16777215
370
    25
100
AcDbVertex
100
AcDb2dVertex
 10
24.32361113687193
 20
6.86901742099288
 30
0.0
  0
SEQEND
  5
16D
330
16A
100
AcDbEntity
  8
CADs
 62
     7
420
 16777215
370
    25
  0
SPLINE
  5
16E
330
1F
100
AcDbEntity
  8
CADs
 62
     7
420
 16777215
370
    25
100
AcDbSpline
210
0.0
220
0.0
230
1.0
 70
     8
 71
     3
 72
     8
 73
     4
 74
     0
 42
0.0000000001
 43
0.0000000001
 12
1.0
 22
0.0
 32
0.0
 13
1.0
 23
0.0
 33
0.0
 40
0.0
 40
0.0
 40
0.0
 40
0.0
 40
1.0
 40
1.0
 40
1.0
 40
1.0
 10
24.31735588106681
 20
6.87501666822594
 30
0.0
 10
24.30379887084001
 20
6.882842731593996
 30
0.0
 10
24.28927504678404
 20
6.888858933037138
 30
0.0
 10
24.27415485838888
 20
6.892910989243735
 30
0.0
  0
POLYLINE
  5
16F
330
1F
100
AcDbEntity
  8
CADs
 62
     7
420
 16777215
370
    25
100
AcDb2dPolyline
 66
     1
 10
0.0
 20
0.0
 30
0.0
  0
VERTEX
  5
170
330
16F
100
AcDbEntity
  8
CADs
 62
     7
420
 16777215
370
    25
100
AcDbVertex
100
AcDb2dVertex
 10
24.26361103514667
 20
6.894018099161283
 30
0.0
  0
VERTEX
  5
171
330
16F
100
AcDbEntity
  8
CADs
 62
     7
420
 16777215
370
    25
100
AcDbVertex
100
AcDb2dVertex
 10
24.25527761704221
 20
6.895684698011096
 30
0.0
  0
SEQEND
  5
172
330
16F
100
AcDbEntity
  8
CADs
 62
     7
420
 16777215
370
    25
  0
POLYLINE
  5
173
330
1F
100
AcDbEntity
  8
CADs
 62
     7
420
 16777215
370
    25
100
AcDb2dPolyline
 66
     1
 10
0.0
 20
0.0
 30
0.0
  0
VERTEX
  5
174
330
173
100
AcDbEntity
  8
CADs
 62
     7
420
 16777215
370
    25
100
AcDbVertex
100
AcDb2dVertex
 10
24.24527760008805
 20
6.895684698011096
 30
0.0
  0
VERTEX
  5
175
330
173
100
AcDbEntity
  8
CADs
 62
     7
420
 16777215
370
    25
100
AcDbVertex
100
AcDb2dVertex
 10
24.23694460583889
 20
6.897351296860935
 30
0.0
  0
SEQEND
  5
176
330
173
100
AcDbEntity
  8
CADs
 62
     7
420
 16777215
370
    25
  0
SPLINE
  5
177
330
1F
100
AcDbEntity
  8
CADs
 62
     7
420
 16777215
370
    25
100
AcDbSpline
210
0.0
220
0.0
230
1.0
 70
     8
 71
     3
 72
     8
 73
     4
 74
     0
 42
0.0000000001
 43
0.0000000001
 12
1.0
 22
0.0
 32
0.0
 13
1.0
 23
0.0
 33
0.0
 40
0.0
 40
0.0
 40
0.0
 40
0.0
 40
1.0
 40
1.0
 40
1.0
 40
1.0
 10
24.22777788830957
 20
6.899017895710749
 30
0.0
 10
24.21211813217903
 20
6.899017895710749
 30
0.0
 10
24.19652619288862
 20
6.896964740871352
 30
0.0
 10
24.18140049437514
 20
6.892910989243735
 30
0.0
  0
POLYLINE
  5
178
330
1F
100
AcDbEntity
  8
CADs
 62
     7
420
 16777215
370
    25
100
AcDb2dPolyline
 66
     1
 10
0.0
 20
0.0
 30
0.0
  0
VERTEX
  5
179
330
178
100
AcDbEntity
  8
CADs
 62
     7
420
 16777215
370
    25
100
AcDbVertex
100
AcDb2dVertex
 10
24.17194428370888
 20
6.889017454901287
 30
0.0
  0
VERTEX
  5
17A
330
178
100
AcDbEntity
  8
CADs
 62
     7
420
 16777215
370
    25
100
AcDbVertex
100
AcDb2dVertex
 10
24.16361086560457
 20
6.885684257201635
 30
0.0
  0
SEQEND
  5
17B
330
178
100
AcDbEntity
  8
CADs
 62
     7
420
 16777215
370
    25
  0
POLYLINE
  5
17C
330
1F
100
AcDbEntity
  8
CADs
 62
     7
420
 16777215
370
    25
100
AcDb2dPolyline
 66
     1
 10
0.0
 20
0.0
 30
0.0
  0
VERTEX
  5
17D
330
17C
100
AcDbEntity
  8
CADs
 62
     7
420
 16777215
370
    25
100
AcDbVertex
100
AcDb2dVertex
 10
24.15361127250556
 20
6.882351059501982
 30
0.0
  0
VERTEX
  5
17E
330
17C
100
AcDbEntity
  8
CADs
 62
     7
420
 16777215
370
    25
100
AcDbVertex
100
AcDb2dVertex
 10
24.14527785440125
 20
6.877350415241999
 30
0.0
  0
SEQEND
  5
17F
330
17C
100
AcDbEntity
  8
CADs
 62
     7
420
 16777215
370
    25
  0
SPLINE
  5
180
330
1F
100
AcDbEntity
  8
CADs
 62
     7
420
 16777215
370
    25
100
AcDbSpline
210
0.0
220
0.0
230
1.0
 70
     8
 71
     3
 72
     8
 73
     4
 74
     0
 42
0.0000000001
 43
0.0000000001
 12
1.0
 22
0.0
 32
0.0
 13
1.0
 23
0.0
 33
0.0
 40
0.0
 40
0.0
 40
0.0
 40
0.0
 40
1.0
 40
1.0
 40
1.0
 40
1.0
 10
24.13819947169723
 20
6.87501666822594
 30
0.0
 10
24.12463737520736
 20
6.867187214015871
 30
0.0
 10
24.11216034816208
 20
6.857614019300172
 30
0.0
 10
24.1010875535657
 20
6.846541224703805
 30
0.0
  0
POLYLINE
  5
181
330
1F
100
AcDbEntity
  8
CADs
 62
     7
420
 16777215
370
    25
100
AcDb2dPolyline
 66
     1
 10
0.0
 20
0.0
 30
0.0
  0
VERTEX
  5
182
330
181
100
AcDbEntity
  8
CADs
 62
     7
420
 16777215
370
    25
100
AcDbVertex
100
AcDb2dVertex
 10
24.09361117078027
 20
6.839016946274985
 30
0.0
  0
VERTEX
  5
183
330
181
100
AcDbEntity
  8
CADs
 62
     7
420
 16777215
370
    25
100
AcDbVertex
100
AcDb2dVertex
 10
24.08861095037554
 20
6.830683952025866
 30
0.0
  0
SEQEND
  5
184
330
181
100
AcDbEntity
  8
CADs
 62
     7
420
 16777215
370
    25
  0
POLYLINE
  5
185
330
1F
100
AcDbEntity
  8
CADs
 62
     7
420
 16777215
370
    25
100
AcDb2dPolyline
 66
     1
 10
0.0
 20
0.0
 30
0.0
  0
VERTEX
  5
186
330
185
100
AcDbEntity
  8
CADs
 62
     7
420
 16777215
370
    25
100
AcDbVertex
100
AcDb2dVertex
 10
24.08194455497624
 20
6.82401755662656
 30
0.0
  0
VERTEX
  5
187
330
185
100
AcDbEntity
  8
CADs
 62
     7
420
 16777215
370
    25
100
AcDbVertex
100
AcDb2dVertex
 10
24.07694433457153
 20
6.815684562377416
 30
0.0
  0
SEQEND
  5
188
330
185
100
AcDbEntity
  8
CADs
 62
     7
420
 16777215
370
    25
  0
SPLINE
  5
189
330
1F
100
AcDbEntity
  8
CADs
 62
     7
420
 16777215
370
    25
100
AcDbSpline
210
0.0
220
0.0
230
1.0
 70
     8
 71
     3
 72
     8
 73
     4
 74
     0
 42
0.0000000001
 43
0.0000000001
 12
1.0
 22
0.0
 32
0.0
 13
1.0
 23
0.0
 33
0.0
 40
0.0
 40
0.0
 40
0.0
 40
0.0
 40
1.0
 40
1.0
 40
1.0
 40
1.0
 10
24.07261168618834
 20
6.809428458861791
 30
0.0
 10
24.06478519896501
 20
6.795871872490263
 30
0.0
 10
24.05876942137709
 20
6.781348896144777
 30
0.0
 10
24.05471736517054
 20
6.766227436183852
 30
0.0
  0
POLYLINE
  5
18A
330
1F
100
AcDbEntity
  8
CADs
 62
     7
420
 16777215
370
    25
100
AcDb2dPolyline
 66
     1
 10
0.0
 20
0.0
 30
0.0
  0
VERTEX
  5
18B
330
18A
100
AcDbEntity
  8
CADs
 62
     7
420
 16777215
370
    25
100
AcDbVertex
100
AcDb2dVertex
 10
24.05194450411361
 20
6.755683612941652
 30
0.0
  0
VERTEX
  5
18C
330
18A
100
AcDbEntity
  8
CADs
 62
     7
420
 16777215
370
    25
100
AcDbVertex
100
AcDb2dVertex
 10
24.05027790526388
 20
6.747350618692533
 30
0.0
  0
SEQEND
  5
18D
330
18A
100
AcDbEntity
  8
CADs
 62
     7
420
 16777215
370
    25
  0
POLYLINE
  5
18E
330
1F
100
AcDbEntity
  8
CADs
 62
     7
420
 16777215
370
    25
100
AcDb2dPolyline
 66
     1
 10
0.0
 20
0.0
 30
0.0
  0
VERTEX
  5
18F
330
18E
100
AcDbEntity
  8
CADs
 62
     7
420
 16777215
370
    25
100
AcDbVertex
100
AcDb2dVertex
 10
24.05027790526388
 20
6.737351025593575
 30
0.0
  0
VERTEX
  5
190
330
18E
100
AcDbEntity
  8
CADs
 62
     7
420
 16777215
370
    25
100
AcDbVertex
100
AcDb2dVertex
 10
24.04861088255876
 20
6.72901803134443
 30
0.0
  0
SEQEND
  5
191
330
18E
100
AcDbEntity
  8
CADs
 62
     7
420
 16777215
370
    25
  0
SPLINE
  5
192
330
1F
100
AcDbEntity
  8
CADs
 62
     7
420
 16777215
370
    25
100
AcDbSpline
210
0.0
220
0.0
230
1.0
 70
     8
 71
     3
 72
     8
 73
     4
 74
     0
 42
0.0000000001
 43
0.0000000001
 12
1.0
 22
0.0
 32
0.0
 13
1.0
 23
0.0
 33
0.0
 40
0.0
 40
0.0
 40
0.0
 40
0.0
 40
1.0
 40
1.0
 40
1.0
 40
1.0
 10
24.04861088255876
 20
6.719850889959893
 30
0.0
 10
24.04861088255876
 20
6.704191133829239
 30
0.0
 10
24.05066403739819
 20
6.688599194538874
 30
0.0
 10
24.05471736517054
 20
6.673473496025419
 30
0.0
  0
POLYLINE
  5
193
330
1F
100
AcDbEntity
  8
CADs
 62
     7
420
 16777215
370
    25
100
AcDb2dPolyline
 66
     1
 10
0.0
 20
0.0
 30
0.0
  0
VERTEX
  5
194
330
193
100
AcDbEntity
  8
CADs
 62
     7
420
 16777215
370
    25
100
AcDbVertex
100
AcDb2dVertex
 10
24.05694430066319
 20
6.6640172853592
 30
0.0
  0
VERTEX
  5
195
330
193
100
AcDbEntity
  8
CADs
 62
     7
420
 16777215
370
    25
100
AcDbVertex
100
AcDb2dVertex
 10
24.06027792221807
 20
6.655684291110055
 30
0.0
  0
SEQEND
  5
196
330
193
100
AcDbEntity
  8
CADs
 62
     7
420
 16777215
370
    25
  0
POLYLINE
  5
197
330
1F
100
AcDbEntity
  8
CADs
 62
     7
420
 16777215
370
    25
100
AcDb2dPolyline
 66
     1
 10
0.0
 20
0.0
 30
0.0
  0
VERTEX
  5
198
330
197
100
AcDbEntity
  8
CADs
 62
     7
420
 16777215
370
    25
100
AcDbVertex
100
AcDb2dVertex
 10
24.06361111991765
 20
6.645684698011096
 30
0.0
  0
VERTEX
  5
199
330
197
100
AcDbEntity
  8
CADs
 62
     7
420
 16777215
370
    25
100
AcDbVertex
100
AcDb2dVertex
 10
24.06861091646723
 20
6.637350856051461
 30
0.0
  0
SEQEND
  5
19A
330
197
100
AcDbEntity
  8
CADs
 62
     7
420
 16777215
370
    25
  0
SPLINE
  5
19B
330
1F
100
AcDbEntity
  8
CADs
 62
     7
420
 16777215
370
    25
100
AcDbSpline
210
0.0
220
0.0
230
1.0
 70
     8
 71
     3
 72
     8
 73
     4
 74
     0
 42
0.0000000001
 43
0.0000000001
 12
1.0
 22
0.0
 32
0.0
 13
1.0
 23
0.0
 33
0.0
 40
0.0
 40
0.0
 40
0.0
 40
0.0
 40
1.0
 40
1.0
 40
1.0
 40
1.0
 10
24.07261168618834
 20
6.630272473347468
 30
0.0
 10
24.0804407165432
 20
6.616709953002416
 30
0.0
 10
24.09001433511402
 20
6.604233349812325
 30
0.0
 10
24.1010875535657
 20
6.593160555215958
 30
0.0
  0
POLYLINE
  5
19C
330
1F
100
AcDbEntity
  8
CADs
 62
     7
420
 16777215
370
    25
100
AcDb2dPolyline
 66
     1
 10
0.0
 20
0.0
 30
0.0
  0
VERTEX
  5
19D
330
19C
100
AcDbEntity
  8
CADs
 62
     7
420
 16777215
370
    25
100
AcDbVertex
100
AcDb2dVertex
 10
24.10694438543416
 20
6.585683748575333
 30
0.0
  0
VERTEX
  5
19E
330
19C
100
AcDbEntity
  8
CADs
 62
     7
420
 16777215
370
    25
100
AcDbVertex
100
AcDb2dVertex
 10
24.1152778035386
 20
6.580683952025866
 30
0.0
  0
SEQEND
  5
19F
330
19C
100
AcDbEntity
  8
CADs
 62
     7
420
 16777215
370
    25
  0
POLYLINE
  5
1A0
330
1F
100
AcDbEntity
  8
CADs
 62
     7
420
 16777215
370
    25
100
AcDb2dPolyline
 66
     1
 10
0.0
 20
0.0
 30
0.0
  0
VERTEX
  5
1A1
330
1A0
100
AcDbEntity
  8
CADs
 62
     7
420
 16777215
370
    25
100
AcDbVertex
100
AcDb2dVertex
 10
24.1219441989379
 20
6.57401755662656
 30
0.0
  0
VERTEX
  5
1A2
330
1A0
100
AcDbEntity
  8
CADs
 62
     7
420
 16777215
370
    25
100
AcDbVertex
100
AcDb2dVertex
 10
24.13027761704221
 20
6.569017760077069
 30
0.0
  0
SEQEND
  5
1A3
330
1A0
100
AcDbEntity
  8
CADs
 62
     7
420
 16777215
370
    25
  0
SPLINE
  5
1A4
330
1F
100
AcDbEntity
  8
CADs
 62
     7
420
 16777215
370
    25
100
AcDbSpline
210
0.0
220
0.0
230
1.0
 70
     8
 71
     3
 72
     8
 73
     4
 74
     0
 42
0.0000000001
 43
0.0000000001
 12
1.0
 22
0.0
 32
0.0
 13
1.0
 23
0.0
 33
0.0
 40
0.0
 40
0.0
 40
0.0
 40
0.0
 40
1.0
 40
1.0
 40
1.0
 40
1.0
 10
24.13819947169723
 20
6.564684687838571
 30
0.0
 10
24.15175605806876
 20
6.556858624470514
 30
0.0
 10
24.16627988212473
 20
6.550842423027373
 30
0.0
 10
24.18140049437514
 20
6.546790790676027
 30
0.0
  0
POLYLINE
  5
1A5
330
1F
100
AcDbEntity
  8
CADs
 62
     7
420
 16777215
370
    25
100
AcDb2dPolyline
 66
     1
 10
0.0
 20
0.0
 30
0.0
  0
VERTEX
  5
1A6
330
1A5
100
AcDbEntity
  8
CADs
 62
     7
420
 16777215
370
    25
100
AcDbVertex
100
AcDb2dVertex
 10
24.1902777187675
 20
6.544017505763918
 30
0.0
  0
VERTEX
  5
1A7
330
1A5
100
AcDbEntity
  8
CADs
 62
     7
420
 16777215
370
    25
100
AcDbVertex
100
AcDb2dVertex
 10
24.19861113687193
 20
6.542350906914091
 30
0.0
  0
SEQEND
  5
1A8
330
1A5
100
AcDbEntity
  8
CADs
 62
     7
420
 16777215
370
    25
  0
POLYLINE
  5
1A9
330
1F
100
AcDbEntity
  8
CADs
 62
     7
420
 16777215
370
    25
100
AcDb2dPolyline
 66
     1
 10
0.0
 20
0.0
 30
0.0
  0
VERTEX
  5
1AA
330
1A9
100
AcDbEntity
  8
CADs
 62
     7
420
 16777215
370
    25
100
AcDbVertex
100
AcDb2dVertex
 10
24.20861115382612
 20
6.542350906914091
 30
0.0
  0
VERTEX
  5
1AB
330
1A9
100
AcDbEntity
  8
CADs
 62
     7
420
 16777215
370
    25
100
AcDbVertex
100
AcDb2dVertex
 10
24.21694457193055
 20
6.540684308064264
 30
0.0
  0
SEQEND
  5
1AC
330
1A9
100
AcDbEntity
  8
CADs
 62
     7
420
 16777215
370
    25
  0
SPLINE
  5
1AD
330
1F
100
AcDbEntity
  8
CADs
 62
     7
420
 16777215
370
    25
100
AcDbSpline
210
0.0
220
0.0
230
1.0
 70
     8
 71
     3
 72
     8
 73
     4
 74
     0
 42
0.0000000001
 43
0.0000000001
 12
1.0
 22
0.0
 32
0.0
 13
1.0
 23
0.0
 33
0.0
 40
0.0
 40
0.0
 40
0.0
 40
0.0
 40
1.0
 40
1.0
 40
1.0
 40
1.0
 10
24.22777788830957
 20
6.540684308064264
 30
0.0
 10
24.24343679672971
 20
6.540684308064264
 30
0.0
 10
24.2590291598754
 20
6.542737039048435
 30
0.0
 10
24.27415485838888
 20
6.546790790676027
 30
0.0
  0
POLYLINE
  5
1AE
330
1F
100
AcDbEntity
  8
CADs
 62
     7
420
 16777215
370
    25
100
AcDb2dPolyline
 66
     1
 10
0.0
 20
0.0
 30
0.0
  0
VERTEX
  5
1AF
330
1AE
100
AcDbEntity
  8
CADs
 62
     7
420
 16777215
370
    25
100
AcDbVertex
100
AcDb2dVertex
 10
24.28194447020526
 20
6.549017726168649
 30
0.0
  0
VERTEX
  5
1B0
330
1AE
100
AcDbEntity
  8
CADs
 62
     7
420
 16777215
370
    25
100
AcDbVertex
100
AcDb2dVertex
 10
24.29027788830957
 20
6.552350923868302
 30
0.0
  0
SEQEND
  5
1B1
330
1AE
100
AcDbEntity
  8
CADs
 62
     7
420
 16777215
370
    25
  0
POLYLINE
  5
1B2
330
1F
100
AcDbEntity
  8
CADs
 62
     7
420
 16777215
370
    25
100
AcDb2dPolyline
 66
     1
 10
0.0
 20
0.0
 30
0.0
  0
VERTEX
  5
1B3
330
1B2
100
AcDbEntity
  8
CADs
 62
     7
420
 16777215
370
    25
100
AcDbVertex
100
AcDb2dVertex
 10
24.30027790526388
 20
6.555684121567954
 30
0.0
  0
VERTEX
  5
1B4
330
1B2
100
AcDbEntity
  8
CADs
 62
     7
420
 16777215
370
    25
100
AcDbVertex
100
AcDb2dVertex
 10
24.30861089951291
 20
6.560684341972685
 30
0.0
  0
SEQEND
  5
1B5
330
1B2
100
AcDbEntity
  8
CADs
 62
     7
420
 16777215
370
    25
  0
SPLINE
  5
1B6
330
1F
100
AcDbEntity
  8
CADs
 62
     7
420
 16777215
370
    25
100
AcDbSpline
210
0.0
220
0.0
230
1.0
 70
     8
 71
     3
 72
     8
 73
     4
 74
     0
 42
0.0000000001
 43
0.0000000001
 12
1.0
 22
0.0
 32
0.0
 13
1.0
 23
0.0
 33
0.0
 40
0.0
 40
0.0
 40
0.0
 40
0.0
 40
1.0
 40
1.0
 40
1.0
 40
1.0
 10
24.31735588106681
 20
6.564684687838571
 30
0.0
 10
24.33091755370138
 20
6.572513718193388
 30
0.0
 10
24.34339458074666
 20
6.582087760619616
 30
0.0
 10
24.35446737534307
 20
6.593160555215958
 30
0.0
  0
POLYLINE
  5
1B7
330
1F
100
AcDbEntity
  8
CADs
 62
     7
420
 16777215
370
    25
100
AcDb2dPolyline
 66
     1
 10
0.0
 20
0.0
 30
0.0
  0
VERTEX
  5
1B8
330
1B7
100
AcDbEntity
  8
CADs
 62
     7
420
 16777215
370
    25
100
AcDbVertex
100
AcDb2dVertex
 10
24.36027758313389
 20
6.599017387084447
 30
0.0
  0
VERTEX
  5
1B9
330
1B7
100
AcDbEntity
  8
CADs
 62
     7
420
 16777215
370
    25
100
AcDbVertex
100
AcDb2dVertex
 10
24.3652778035386
 20
6.607351229044083
 30
0.0
  0
SEQEND
  5
1BA
330
1B7
100
AcDbEntity
  8
CADs
 62
     7
420
 16777215
370
    25
  0
POLYLINE
  5
1BB
330
1F
100
AcDbEntity
  8
CADs
 62
     7
420
 16777215
370
    25
100
AcDb2dPolyline
 66
     1
 10
0.0
 20
0.0
 30
0.0
  0
VERTEX
  5
1BC
330
1BB
100
AcDbEntity
  8
CADs
 62
     7
420
 16777215
370
    25
100
AcDbVertex
100
AcDb2dVertex
 10
24.3719441989379
 20
6.614017624443388
 30
0.0
  0
VERTEX
  5
1BD
330
1BB
100
AcDbEntity
  8
CADs
 62
     7
420
 16777215
370
    25
100
AcDbVertex
100
AcDb2dVertex
 10
24.37694441934264
 20
6.622350618692533
 30
0.0
  0
SEQEND
  5
1BE
330
1BB
100
AcDbEntity
  8
CADs
 62
     7
420
 16777215
370
    25
  0
SPLINE
  5
1BF
330
1F
100
AcDbEntity
  8
CADs
 62
     7
420
 16777215
370
    25
100
AcDbSpline
210
0.0
220
0.0
230
1.0
 70
     8
 71
     3
 72
     8
 73
     4
 74
     0
 42
0.0000000001
 43
0.0000000001
 12
1.0
 22
0.0
 32
0.0
 13
1.0
 23
0.0
 33
0.0
 40
0.0
 40
0.0
 40
0.0
 40
0.0
 40
1.0
 40
1.0
 40
1.0
 40
1.0
 10
24.38294281886513
 20
6.630272473347468
 30
0.0
 10
24.39076888223318
 20
6.643829059718996
 30
0.0
 10
24.39678593138695
 20
6.658352883774985
 30
0.0
 10
24.40083798759348
 20
6.673473496025419
 30
0.0
  0
POLYLINE
  5
1C0
330
1F
100
AcDbEntity
  8
CADs
 62
     7
420
 16777215
370
    25
100
AcDb2dPolyline
 66
     1
 10
0.0
 20
0.0
 30
0.0
  0
VERTEX
  5
1C1
330
1C0
100
AcDbEntity
  8
CADs
 62
     7
420
 16777215
370
    25
100
AcDbVertex
100
AcDb2dVertex
 10
24.40194424980056
 20
6.68235072041778
 30
0.0
  0
VERTEX
  5
1C2
330
1C0
100
AcDbEntity
  8
CADs
 62
     7
420
 16777215
370
    25
100
AcDbVertex
100
AcDb2dVertex
 10
24.40361169636084
 20
6.690684562377416
 30
0.0
  0
SEQEND
  5
1C3
330
1C0
100
AcDbEntity
  8
CADs
 62
     7
420
 16777215
370
    25
  0
POLYLINE
  5
1C4
330
1F
100
AcDbEntity
  8
CADs
 62
     7
420
 16777215
370
    25
100
AcDb2dPolyline
 66
     1
 10
0.0
 20
0.0
 30
0.0
  0
VERTEX
  5
1C5
330
1C4
100
AcDbEntity
  8
CADs
 62
     7
420
 16777215
370
    25
100
AcDbVertex
100
AcDb2dVertex
 10
24.40361169636084
 20
6.700684155476374
 30
0.0
  0
VERTEX
  5
1C6
330
1C4
100
AcDbEntity
  8
CADs
 62
     7
420
 16777215
370
    25
100
AcDbVertex
100
AcDb2dVertex
 10
24.40527829521069
 20
6.709017149725518
 30
0.0
  0
SEQEND
  5
1C7
330
1C4
100
AcDbEntity
  8
CADs
 62
     7
420
 16777215
370
    25
  0
POLYLINE
  5
1C8
330
1F
100
AcDbEntity
  8
CADs
 62
     7
420
 16777215
370
    13
100
AcDb2dPolyline
 66
     1
 10
0.0
 20
0.0
 30
0.0
  0
VERTEX
  5
1C9
330
1C8
100
AcDbEntity
  8
CADs
 62
     7
420
 16777215
370
    13
100
AcDbVertex
100
AcDb2dVertex
 10
23.31141265339167
 20
6.902351093410402
 30
0.0
  0
VERTEX
  5
1CA
330
1C8
100
AcDbEntity
  8
CADs
 62
     7
420
 16777215
370
    13
100
AcDbVertex
100
AcDb2dVertex
 10
23.88861103514667
 20
6.902351093410402
 30
0.0
  0
VERTEX
  5
1CB
330
1C8
100
AcDbEntity
  8
CADs
 62
     7
420
 16777215
370
    13
100
AcDbVertex
100
AcDb2dVertex
 10
24.06217566658112
 20
6.813172592208957
 30
0.0
  0
SEQEND
  5
1CC
330
1C8
100
AcDbEntity
  8
CADs
 62
     7
420
 16777215
370
    13
  0
MTEXT
  5
1CD
330
1F
100
AcDbEntity
  8
CADs
 62
     7
420
 16777215
100
AcDbMText
 10
23.31637573242188
 20
6.92901505364312
 30
0.0
 40
0.0480802816549937
 41
0.0
 46
0.0
 71
     7
 72
     1
  1
\fGotham Light|b0|i0|c0|p34;\W1;Ø1.850 [Ø46.99]
 73
     1
 44
1.0
  0
POLYLINE
  5
1CE
330
1F
100
AcDbEntity
  8
CADs
 62
     7
420
 16777215
370
    25
100
AcDb2dPolyline
 66
     1
 10
0.0
 20
0.0
 30
0.0
  0
VERTEX
  5
1CF
330
1CE
100
AcDbEntity
  8
CADs
 62
     7
420
 16777215
370
    25
100
AcDbVertex
100
AcDb2dVertex
 10
24.20861115382612
 20
6.719017590534968
 30
0.0
  0
VERTEX
  5
1D0
330
1CE
100
AcDbEntity
  8
CADs
 62
     7
420
 16777215
370
    25
100
AcDbVertex
100
AcDb2dVertex
 10
24.2436110012382
 20
6.719017590534968
 30
0.0
  0
SEQEND
  5
1D1
330
1CE
100
AcDbEntity
  8
CADs
 62
     7
420
 16777215
370
    25
  0
POLYLINE
  5
1D2
330
1F
100
AcDbEntity
  8
CADs
 62
     7
420
 16777215
370
    25
100
AcDb2dPolyline
 66
     1
 10
0.0
 20
0.0
 30
0.0
  0
VERTEX
  5
1D3
330
1D2
100
AcDbEntity
  8
CADs
 62
     7
420
 16777215
370
    25
100
AcDbVertex
100
AcDb2dVertex
 10
24.22694458888473
 20
6.700684155476374
 30
0.0
  0
VERTEX
  5
1D4
330
1D2
100
AcDbEntity
  8
CADs
 62
     7
420
 16777215
370
    25
100
AcDbVertex
100
AcDb2dVertex
 10
24.22694458888473
 20
6.735684426743735
 30
0.0
  0
SEQEND
  5
1D5
330
1D2
100
AcDbEntity
  8
CADs
 62
     7
420
 16777215
370
    25
  0
POLYLINE
  5
1D6
330
1F
100
AcDbEntity
  8
CADs
 62
     7
420
 16777215
370
    13
100
AcDb2dPolyline
 66
     1
 10
0.0
 20
0.0
 30
0.0
  0
VERTEX
  5
1D7
330
1D6
100
AcDbEntity
  8
CADs
 62
     7
420
 16777215
370
    13
100
AcDbVertex
100
AcDb2dVertex
 10
25.29306003647429
 20
7.179017522718127
 30
0.0
  0
VERTEX
  5
1D8
330
1D6
100
AcDbEntity
  8
CADs
 62
     7
420
 16777215
370
    13
100
AcDbVertex
100
AcDb2dVertex
 10
24.67527748140861
 20
7.179017522718127
 30
0.0
  0
VERTEX
  5
1D9
330
1D6
100
AcDbEntity
  8
CADs
 62
     7
420
 16777215
370
    13
100
AcDbVertex
100
AcDb2dVertex
 10
24.31523326063987
 20
6.807056396582147
 30
0.0
  0
SEQEND
  5
1DA
330
1D6
100
AcDbEntity
  8
CADs
 62
     7
420
 16777215
370
    13
  0
MTEXT
  5
1DB
330
1F
100
AcDbEntity
  8
CADs
 62
     7
420
 16777215
100
AcDbMText
 10
24.68527730305989
 20
7.204019122653537
 30
0.0
 40
0.0480802816549937
 41
0.0
 46
0.0
 71
     7
 72
     1
  1
\fGotham Light|b0|i0|c0|p34;\W1;4 X R0.125 [R3.18]
 73
     1
 44
1.0
  0
POLYLINE
  5
1DC
330
1F
100
AcDbEntity
  8
CADs
 62
     7
420
 16777215
370
    25
100
AcDb2dPolyline
 66
     1
 10
0.0
 20
0.0
 30
0.0
  0
VERTEX
  5
1DD
330
1DC
100
AcDbEntity
  8
CADs
 62
     7
420
 16777215
370
    25
100
AcDbVertex
100
AcDb2dVertex
 10
24.27194445325098
 20
6.782350889959893
 30
0.0
  0
VERTEX
  5
1DE
330
1DC
100
AcDbEntity
  8
CADs
 62
     7
420
 16777215
370
    25
100
AcDbVertex
100
AcDb2dVertex
 10
24.30694430066319
 20
6.782350889959893
 30
0.0
  0
SEQEND
  5
1DF
330
1DC
100
AcDbEntity
  8
CADs
 62
     7
420
 16777215
370
    25
  0
POLYLINE
  5
1E0
330
1F
100
AcDbEntity
  8
CADs
 62
     7
420
 16777215
370
    25
100
AcDb2dPolyline
 66
     1
 10
0.0
 20
0.0
 30
0.0
  0
VERTEX
  5
1E1
330
1E0
100
AcDbEntity
  8
CADs
 62
     7
420
 16777215
370
    25
100
AcDbVertex
100
AcDb2dVertex
 10
24.29027788830957
 20
6.764017454901287
 30
0.0
  0
VERTEX
  5
1E2
330
1E0
100
AcDbEntity
  8
CADs
 62
     7
420
 16777215
370
    25
100
AcDbVertex
100
AcDb2dVertex
 10
24.29027788830957
 20
6.799017726168649
 30
0.0
  0
SEQEND
  5
1E3
330
1E0
100
AcDbEntity
  8
CADs
 62
     7
420
 16777215
370
    25
  0
SPLINE
  5
1E4
330
1F
100
AcDbEntity
  8
CADs
 62
     7
420
 16777215
370
    25
100
AcDbSpline
210
0.0
220
0.0
230
1.0
 70
     8
 71
     3
 72
     8
 73
     4
 74
     0
 42
0.0000000001
 43
0.0000000001
 12
1.0
 22
0.0
 32
0.0
 13
1.0
 23
0.0
 33
0.0
 40
0.0
 40
0.0
 40
0.0
 40
0.0
 40
1.0
 40
1.0
 40
1.0
 40
1.0
 10
24.31694431761737
 20
6.719850889959893
 30
0.0
 10
24.31694431761737
 20
6.735501321274985
 30
0.0
 10
24.31282444457042
 20
6.750877094386977
 30
0.0
 10
24.30499922891292
 20
6.764431985337485
 30
0.0
  0
POLYLINE
  5
1E5
330
1F
100
AcDbEntity
  8
CADs
 62
     7
420
 16777215
370
    25
100
AcDb2dPolyline
 66
     1
 10
0.0
 20
0.0
 30
0.0
  0
VERTEX
  5
1E6
330
1E5
100
AcDbEntity
  8
CADs
 62
     7
420
 16777215
370
    25
100
AcDbVertex
100
AcDb2dVertex
 10
24.29861088255876
 20
6.770684698011096
 30
0.0
  0
VERTEX
  5
1E7
330
1E5
100
AcDbEntity
  8
CADs
 62
     7
420
 16777215
370
    25
100
AcDbVertex
100
AcDb2dVertex
 10
24.29194448715945
 20
6.777351093410402
 30
0.0
  0
SEQEND
  5
1E8
330
1E5
100
AcDbEntity
  8
CADs
 62
     7
420
 16777215
370
    25
  0
POLYLINE
  5
1E9
330
1F
100
AcDbEntity
  8
CADs
 62
     7
420
 16777215
370
    25
100
AcDb2dPolyline
 66
     1
 10
0.0
 20
0.0
 30
0.0
  0
VERTEX
  5
1EA
330
1E9
100
AcDbEntity
  8
CADs
 62
     7
420
 16777215
370
    25
100
AcDbVertex
100
AcDb2dVertex
 10
24.28527766790487
 20
6.784017488809708
 30
0.0
  0
VERTEX
  5
1EB
330
1E9
100
AcDbEntity
  8
CADs
 62
     7
420
 16777215
370
    25
100
AcDbVertex
100
AcDb2dVertex
 10
24.27861127250556
 20
6.790683884209013
 30
0.0
  0
SEQEND
  5
1EC
330
1E9
100
AcDbEntity
  8
CADs
 62
     7
420
 16777215
370
    25
  0
SPLINE
  5
1ED
330
1F
100
AcDbEntity
  8
CADs
 62
     7
420
 16777215
370
    25
100
AcDbSpline
210
0.0
220
0.0
230
1.0
 70
     8
 71
     3
 72
     8
 73
     4
 74
     0
 42
0.0000000001
 43
0.0000000001
 12
1.0
 22
0.0
 32
0.0
 13
1.0
 23
0.0
 33
0.0
 40
0.0
 40
0.0
 40
0.0
 40
0.0
 40
1.0
 40
1.0
 40
1.0
 40
1.0
 10
24.27235813597667
 20
6.79707223056318
 30
0.0
 10
24.25880409273666
 20
6.804898293931235
 30
0.0
 10
24.24342874348
 20
6.80901816697811
 30
0.0
 10
24.22777788830957
 20
6.80901816697811
 30
0.0
  0
POLYLINE
  5
1EE
330
1F
100
AcDbEntity
  8
CADs
 62
     7
420
 16777215
370
    25
100
AcDb2dPolyline
 66
     1
 10
0.0
 20
0.0
 30
0.0
  0
VERTEX
  5
1EF
330
1EE
100
AcDbEntity
  8
CADs
 62
     7
420
 16777215
370
    25
100
AcDbVertex
100
AcDb2dVertex
 10
24.21694457193055
 20
6.80735072041778
 30
0.0
  0
VERTEX
  5
1F0
330
1EE
100
AcDbEntity
  8
CADs
 62
     7
420
 16777215
370
    25
100
AcDbVertex
100
AcDb2dVertex
 10
24.20861115382612
 20
6.805684121567954
 30
0.0
  0
SEQEND
  5
1F1
330
1EE
100
AcDbEntity
  8
CADs
 62
     7
420
 16777215
370
    25
  0
POLYLINE
  5
1F2
330
1F
100
AcDbEntity
  8
CADs
 62
     7
420
 16777215
370
    25
100
AcDb2dPolyline
 66
     1
 10
0.0
 20
0.0
 30
0.0
  0
VERTEX
  5
1F3
330
1F2
100
AcDbEntity
  8
CADs
 62
     7
420
 16777215
370
    25
100
AcDbVertex
100
AcDb2dVertex
 10
24.20027773572166
 20
6.802350923868302
 30
0.0
  0
VERTEX
  5
1F4
330
1F2
100
AcDbEntity
  8
CADs
 62
     7
420
 16777215
370
    25
100
AcDbVertex
100
AcDb2dVertex
 10
24.1902777187675
 20
6.799017726168649
 30
0.0
  0
SEQEND
  5
1F5
330
1F2
100
AcDbEntity
  8
CADs
 62
     7
420
 16777215
370
    25
  0
SPLINE
  5
1F6
330
1F
100
AcDbEntity
  8
CADs
 62
     7
420
 16777215
370
    25
100
AcDbSpline
210
0.0
220
0.0
230
1.0
 70
     8
 71
     3
 72
     8
 73
     4
 74
     0
 42
0.0000000001
 43
0.0000000001
 12
1.0
 22
0.0
 32
0.0
 13
1.0
 23
0.0
 33
0.0
 40
0.0
 40
0.0
 40
0.0
 40
0.0
 40
1.0
 40
1.0
 40
1.0
 40
1.0
 10
24.18319679293209
 20
6.79707223056318
 30
0.0
 10
24.16963978270526
 20
6.789246167195124
 30
0.0
 10
24.15838218721915
 20
6.777988571709013
 30
0.0
 10
24.15055569999585
 20
6.764431985337485
 30
0.0
  0
POLYLINE
  5
1F7
330
1F
100
AcDbEntity
  8
CADs
 62
     7
420
 16777215
370
    25
100
AcDb2dPolyline
 66
     1
 10
0.0
 20
0.0
 30
0.0
  0
VERTEX
  5
1F8
330
1F7
100
AcDbEntity
  8
CADs
 62
     7
420
 16777215
370
    25
100
AcDbVertex
100
AcDb2dVertex
 10
24.14694445325098
 20
6.755683612941652
 30
0.0
  0
VERTEX
  5
1F9
330
1F7
100
AcDbEntity
  8
CADs
 62
     7
420
 16777215
370
    25
100
AcDbVertex
100
AcDb2dVertex
 10
24.1436112555514
 20
6.745684019842694
 30
0.0
  0
SEQEND
  5
1FA
330
1F7
100
AcDbEntity
  8
CADs
 62
     7
420
 16777215
370
    25
  0
POLYLINE
  5
1FB
330
1F
100
AcDbEntity
  8
CADs
 62
     7
420
 16777215
370
    25
100
AcDb2dPolyline
 66
     1
 10
0.0
 20
0.0
 30
0.0
  0
VERTEX
  5
1FC
330
1FB
100
AcDbEntity
  8
CADs
 62
     7
420
 16777215
370
    25
100
AcDbVertex
100
AcDb2dVertex
 10
24.14027763399652
 20
6.737351025593575
 30
0.0
  0
VERTEX
  5
1FD
330
1FB
100
AcDbEntity
  8
CADs
 62
     7
420
 16777215
370
    25
100
AcDbVertex
100
AcDb2dVertex
 10
24.13861103514667
 20
6.72901803134443
 30
0.0
  0
SEQEND
  5
1FE
330
1FB
100
AcDbEntity
  8
CADs
 62
     7
420
 16777215
370
    25
  0
SPLINE
  5
1FF
330
1F
100
AcDbEntity
  8
CADs
 62
     7
420
 16777215
370
    25
100
AcDbSpline
210
0.0
220
0.0
230
1.0
 70
     8
 71
     3
 72
     8
 73
     4
 74
     0
 42
0.0000000001
 43
0.0000000001
 12
1.0
 22
0.0
 32
0.0
 13
1.0
 23
0.0
 33
0.0
 40
0.0
 40
0.0
 40
0.0
 40
0.0
 40
1.0
 40
1.0
 40
1.0
 40
1.0
 10
24.13861103514667
 20
6.719850889959893
 30
0.0
 10
24.13861103514667
 20
6.704199610934274
 30
0.0
 10
24.14273048433834
 20
6.68882468553281
 30
0.0
 10
24.15055569999585
 20
6.675269794582277
 30
0.0
  0
POLYLINE
  5
200
330
1F
100
AcDbEntity
  8
CADs
 62
     7
420
 16777215
370
    25
100
AcDb2dPolyline
 66
     1
 10
0.0
 20
0.0
 30
0.0
  0
VERTEX
  5
201
330
200
100
AcDbEntity
  8
CADs
 62
     7
420
 16777215
370
    25
100
AcDbVertex
100
AcDb2dVertex
 10
24.15527787135541
 20
6.667350483058852
 30
0.0
  0
VERTEX
  5
202
330
200
100
AcDbEntity
  8
CADs
 62
     7
420
 16777215
370
    25
100
AcDbVertex
100
AcDb2dVertex
 10
24.16194426675472
 20
6.660684087659547
 30
0.0
  0
SEQEND
  5
203
330
200
100
AcDbEntity
  8
CADs
 62
     7
420
 16777215
370
    25
  0
POLYLINE
  5
204
330
1F
100
AcDbEntity
  8
CADs
 62
     7
420
 16777215
370
    25
100
AcDb2dPolyline
 66
     1
 10
0.0
 20
0.0
 30
0.0
  0
VERTEX
  5
205
330
204
100
AcDbEntity
  8
CADs
 62
     7
420
 16777215
370
    25
100
AcDbVertex
100
AcDb2dVertex
 10
24.1686110860093
 20
6.654017692260241
 30
0.0
  0
VERTEX
  5
206
330
204
100
AcDbEntity
  8
CADs
 62
     7
420
 16777215
370
    25
100
AcDbVertex
100
AcDb2dVertex
 10
24.17527790526388
 20
6.647351296860935
 30
0.0
  0
SEQEND
  5
207
330
204
100
AcDbEntity
  8
CADs
 62
     7
420
 16777215
370
    25
  0
SPLINE
  5
208
330
1F
100
AcDbEntity
  8
CADs
 62
     7
420
 16777215
370
    25
100
AcDbSpline
210
0.0
220
0.0
230
1.0
 70
     8
 71
     3
 72
     8
 73
     4
 74
     0
 42
0.0000000001
 43
0.0000000001
 12
1.0
 22
0.0
 32
0.0
 13
1.0
 23
0.0
 33
0.0
 40
0.0
 40
0.0
 40
0.0
 40
0.0
 40
1.0
 40
1.0
 40
1.0
 40
1.0
 10
24.18319679293209
 20
6.642628701646079
 30
0.0
 10
24.19675126002721
 20
6.634803485988527
 30
0.0
 10
24.21212618542874
 20
6.630683612941652
 30
0.0
 10
24.22777788830957
 20
6.630683612941652
 30
0.0
  0
POLYLINE
  5
209
330
1F
100
AcDbEntity
  8
CADs
 62
     7
420
 16777215
370
    25
100
AcDb2dPolyline
 66
     1
 10
0.0
 20
0.0
 30
0.0
  0
VERTEX
  5
20A
330
209
100
AcDbEntity
  8
CADs
 62
     7
420
 16777215
370
    25
100
AcDbVertex
100
AcDb2dVertex
 10
24.23694460583889
 20
6.630683612941652
 30
0.0
  0
VERTEX
  5
20B
330
209
100
AcDbEntity
  8
CADs
 62
     7
420
 16777215
370
    25
100
AcDbVertex
100
AcDb2dVertex
 10
24.24527760008805
 20
6.632351059501982
 30
0.0
  0
SEQEND
  5
20C
330
209
100
AcDbEntity
  8
CADs
 62
     7
420
 16777215
370
    25
  0
POLYLINE
  5
20D
330
1F
100
AcDbEntity
  8
CADs
 62
     7
420
 16777215
370
    25
100
AcDb2dPolyline
 66
     1
 10
0.0
 20
0.0
 30
0.0
  0
VERTEX
  5
20E
330
20D
100
AcDbEntity
  8
CADs
 62
     7
420
 16777215
370
    25
100
AcDbVertex
100
AcDb2dVertex
 10
24.25361101819251
 20
6.635684257201635
 30
0.0
  0
VERTEX
  5
20F
330
20D
100
AcDbEntity
  8
CADs
 62
     7
420
 16777215
370
    25
100
AcDbVertex
100
AcDb2dVertex
 10
24.26361103514667
 20
6.639017454901287
 30
0.0
  0
SEQEND
  5
210
330
20D
100
AcDbEntity
  8
CADs
 62
     7
420
 16777215
370
    25
  0
SPLINE
  5
211
330
1F
100
AcDbEntity
  8
CADs
 62
     7
420
 16777215
370
    25
100
AcDbSpline
210
0.0
220
0.0
230
1.0
 70
     8
 71
     3
 72
     8
 73
     4
 74
     0
 42
0.0000000001
 43
0.0000000001
 12
1.0
 22
0.0
 32
0.0
 13
1.0
 23
0.0
 33
0.0
 40
0.0
 40
0.0
 40
0.0
 40
0.0
 40
1.0
 40
1.0
 40
1.0
 40
1.0
 10
24.27235813597667
 20
6.642628701646079
 30
0.0
 10
24.28591514620348
 20
6.650455612724638
 30
0.0
 10
24.29717316554487
 20
6.661713208210749
 30
0.0
 10
24.30499922891292
 20
6.675269794582277
 30
0.0
  0
POLYLINE
  5
212
330
1F
100
AcDbEntity
  8
CADs
 62
     7
420
 16777215
370
    25
100
AcDb2dPolyline
 66
     1
 10
0.0
 20
0.0
 30
0.0
  0
VERTEX
  5
213
330
212
100
AcDbEntity
  8
CADs
 62
     7
420
 16777215
370
    25
100
AcDbVertex
100
AcDb2dVertex
 10
24.30694430066319
 20
6.68235072041778
 30
0.0
  0
VERTEX
  5
214
330
212
100
AcDbEntity
  8
CADs
 62
     7
420
 16777215
370
    25
100
AcDbVertex
100
AcDb2dVertex
 10
24.31027792221807
 20
6.692351161227255
 30
0.0
  0
SEQEND
  5
215
330
212
100
AcDbEntity
  8
CADs
 62
     7
420
 16777215
370
    25
  0
POLYLINE
  5
216
330
1F
100
AcDbEntity
  8
CADs
 62
     7
420
 16777215
370
    25
100
AcDb2dPolyline
 66
     1
 10
0.0
 20
0.0
 30
0.0
  0
VERTEX
  5
217
330
216
100
AcDbEntity
  8
CADs
 62
     7
420
 16777215
370
    25
100
AcDbVertex
100
AcDb2dVertex
 10
24.31361111991765
 20
6.700684155476374
 30
0.0
  0
VERTEX
  5
218
330
216
100
AcDbEntity
  8
CADs
 62
     7
420
 16777215
370
    25
100
AcDbVertex
100
AcDb2dVertex
 10
24.3152777187675
 20
6.709017149725518
 30
0.0
  0
SEQEND
  5
219
330
216
100
AcDbEntity
  8
CADs
 62
     7
420
 16777215
370
    25
  0
POLYLINE
  5
21A
330
1F
100
AcDbEntity
  8
CADs
 62
     7
420
 16777215
370
    13
100
AcDb2dPolyline
 66
     1
 10
0.0
 20
0.0
 30
0.0
  0
VERTEX
  5
21B
330
21A
100
AcDbEntity
  8
CADs
 62
     7
420
 16777215
370
    13
100
AcDbVertex
100
AcDb2dVertex
 10
23.14627537146819
 20
6.670683680758505
 30
0.0
  0
VERTEX
  5
21C
330
21A
100
AcDbEntity
  8
CADs
 62
     7
420
 16777215
370
    13
100
AcDbVertex
100
AcDb2dVertex
 10
23.69194431761737
 20
6.670683680758505
 30
0.0
  0
VERTEX
  5
21D
330
21A
100
AcDbEntity
  8
CADs
 62
     7
420
 16777215
370
    13
100
AcDbVertex
100
AcDb2dVertex
 10
24.1225730983957
 20
6.708432742100032
 30
0.0
  0
SEQEND
  5
21E
330
21A
100
AcDbEntity
  8
CADs
 62
     7
420
 16777215
370
    13
  0
MTEXT
  5
21F
330
1F
100
AcDbEntity
  8
CADs
 62
     7
420
 16777215
100
AcDbMText
 10
23.15580919053819
 20
6.695684432983398
 30
0.0
 40
0.0480802816549937
 41
0.0
 46
0.0
 71
     7
 72
     1
  1
\fGotham Light|b0|i0|c0|p34;\W1;Ø0.916 [Ø23.26]
 73
     1
 44
1.0
  0
POLYLINE
  5
220
330
1F
100
AcDbEntity
  8
CADs
 62
     7
420
 16777215
370
    25
100
AcDb2dPolyline
 66
     1
 10
0.0
 20
0.0
 30
0.0
  0
VERTEX
  5
221
330
220
100
AcDbEntity
  8
CADs
 62
     7
420
 16777215
370
    25
100
AcDbVertex
100
AcDb2dVertex
 10
24.20861115382612
 20
6.719017590534968
 30
0.0
  0
VERTEX
  5
222
330
220
100
AcDbEntity
  8
CADs
 62
     7
420
 16777215
370
    25
100
AcDbVertex
100
AcDb2dVertex
 10
24.2436110012382
 20
6.719017590534968
 30
0.0
  0
SEQEND
  5
223
330
220
100
AcDbEntity
  8
CADs
 62
     7
420
 16777215
370
    25
  0
POLYLINE
  5
224
330
1F
100
AcDbEntity
  8
CADs
 62
     7
420
 16777215
370
    25
100
AcDb2dPolyline
 66
     1
 10
0.0
 20
0.0
 30
0.0
  0
VERTEX
  5
225
330
224
100
AcDbEntity
  8
CADs
 62
     7
420
 16777215
370
    25
100
AcDbVertex
100
AcDb2dVertex
 10
24.22694458888473
 20
6.700684155476374
 30
0.0
  0
VERTEX
  5
226
330
224
100
AcDbEntity
  8
CADs
 62
     7
420
 16777215
370
    25
100
AcDbVertex
100
AcDb2dVertex
 10
24.22694458888473
 20
6.735684426743735
 30
0.0
  0
SEQEND
  5
227
330
224
100
AcDbEntity
  8
CADs
 62
     7
420
 16777215
370
    25
  0
POLYLINE
  5
228
330
1F
100
AcDbEntity
  8
CADs
 62
     7
420
 16777215
370
    13
100
AcDb2dPolyline
 66
     1
 10
0.0
 20
0.0
 30
0.0
  0
VERTEX
  5
229
330
228
100
AcDbEntity
  8
CADs
 62
     7
420
 16777215
370
    13
100
AcDbVertex
100
AcDb2dVertex
 10
25.18861111991765
 20
6.890684053751114
 30
0.0
  0
VERTEX
  5
22A
330
228
100
AcDbEntity
  8
CADs
 62
     7
420
 16777215
370
    13
100
AcDbVertex
100
AcDb2dVertex
 10
24.6436112555514
 20
6.890684053751114
 30
0.0
  0
VERTEX
  5
22B
330
228
100
AcDbEntity
  8
CADs
 62
     7
420
 16777215
370
    13
100
AcDbVertex
100
AcDb2dVertex
 10
24.32899470080014
 20
6.758891356021119
 30
0.0
  0
SEQEND
  5
22C
330
228
100
AcDbEntity
  8
CADs
 62
     7
420
 16777215
370
    13
  0
MTEXT
  5
22D
330
1F
100
AcDbEntity
  8
CADs
 62
     7
420
 16777215
100
AcDbMText
 10
24.6569095187717
 20
6.915682262844509
 30
0.0
 40
0.0480802816549937
 41
0.0
 46
0.0
 71
     7
 72
     1
  1
\fGotham Light|b0|i0|c0|p34;\W1;R0.508 [R12.89]
 73
     1
 44
1.0
  0
POLYLINE
  5
22E
330
1F
100
AcDbEntity
  8
CADs
 62
     7
420
 16777215
370
    25
100
AcDb2dPolyline
 66
     1
 10
0.0
 20
0.0
 30
0.0
  0
VERTEX
  5
22F
330
22E
100
AcDbEntity
  8
CADs
 62
     7
420
 16777215
370
    25
100
AcDbVertex
100
AcDb2dVertex
 10
24.20861115382612
 20
6.719017590534968
 30
0.0
  0
VERTEX
  5
230
330
22E
100
AcDbEntity
  8
CADs
 62
     7
420
 16777215
370
    25
100
AcDbVertex
100
AcDb2dVertex
 10
24.2436110012382
 20
6.719017590534968
 30
0.0
  0
SEQEND
  5
231
330
22E
100
AcDbEntity
  8
CADs
 62
     7
420
 16777215
370
    25
  0
POLYLINE
  5
232
330
1F
100
AcDbEntity
  8
CADs
 62
     7
420
 16777215
370
    25
100
AcDb2dPolyline
 66
     1
 10
0.0
 20
0.0
 30
0.0
  0
VERTEX
  5
233
330
232
100
AcDbEntity
  8
CADs
 62
     7
420
 16777215
370
    25
100
AcDbVertex
100
AcDb2dVertex
 10
24.22694458888473
 20
6.700684155476374
 30
0.0
  0
VERTEX
  5
234
330
232
100
AcDbEntity
  8
CADs
 62
     7
420
 16777215
370
    25
100
AcDbVertex
100
AcDb2dVertex
 10
24.22694458888473
 20
6.735684426743735
 30
0.0
  0
SEQEND
  5
235
330
232
100
AcDbEntity
  8
CADs
 62
     7
420
 16777215
370
    25
  0
SPLINE
  5
236
330
1F
100
AcDbEntity
  8
CADs
 62
     7
420
 16777215
370
    25
100
AcDbSpline
210
0.0
220
0.0
230
1.0
 70
     8
 71
     3
 72
     8
 73
     4
 74
     0
 42
0.0000000001
 43
0.0000000001
 12
1.0
 22
0.0
 32
0.0
 13
1.0
 23
0.0
 33
0.0
 40
0.0
 40
0.0
 40
0.0
 40
0.0
 40
1.0
 40
1.0
 40
1.0
 40
1.0
 10
24.3230546149264
 20
6.747352314113527
 30
0.0
 10
24.32133418645958
 20
6.75331171895295
 30
0.0
 10
24.31905808375778
 20
6.759097343139135
 30
0.0
 10
24.31625724825431
 20
6.764632045016305
 30
0.0
  0
POLYLINE
  5
237
330
1F
100
AcDbEntity
  8
CADs
 62
     7
420
 16777215
370
    18
100
AcDb2dPolyline
 66
     1
 10
0.0
 20
0.0
 30
0.0
  0
VERTEX
  5
238
330
237
100
AcDbEntity
  8
CADs
 62
     7
420
 16777215
370
    18
100
AcDbVertex
100
AcDb2dVertex
 10
26.71027775267597
 20
6.56735073737199
 30
0.0
  0
VERTEX
  5
239
330
237
100
AcDbEntity
  8
CADs
 62
     7
420
 16777215
370
    18
100
AcDbVertex
100
AcDb2dVertex
 10
30.21027775267597
 20
6.56735073737199
 30
0.0
  0
SEQEND
  5
23A
330
237
100
AcDbEntity
  8
CADs
 62
     7
420
 16777215
370
    18
  0
POLYLINE
  5
23B
330
1F
100
AcDbEntity
  8
CADs
 62
     7
420
 16777215
370
    18
100
AcDb2dPolyline
 66
     1
 10
0.0
 20
0.0
 30
0.0
  0
VERTEX
  5
23C
330
23B
100
AcDbEntity
  8
CADs
 62
     7
420
 16777215
370
    18
100
AcDbVertex
100
AcDb2dVertex
 10
29.6902777187675
 20
6.870684019842694
 30
0.0
  0
VERTEX
  5
23D
330
23B
100
AcDbEntity
  8
CADs
 62
     7
420
 16777215
370
    18
100
AcDbVertex
100
AcDb2dVertex
 10
26.71027775267597
 20
6.870684019842694
 30
0.0
  0
SEQEND
  5
23E
330
23B
100
AcDbEntity
  8
CADs
 62
     7
420
 16777215
370
    18
  0
POLYLINE
  5
23F
330
1F
100
AcDbEntity
  8
CADs
 62
     7
420
 16777215
370
    18
100
AcDb2dPolyline
 66
     1
 10
0.0
 20
0.0
 30
0.0
  0
VERTEX
  5
240
330
23F
100
AcDbEntity
  8
CADs
 62
     7
420
 16777215
370
    18
100
AcDbVertex
100
AcDb2dVertex
 10
27.88027761704221
 20
6.639017454901287
 30
0.0
  0
VERTEX
  5
241
330
23F
100
AcDbEntity
  8
CADs
 62
     7
420
 16777215
370
    18
100
AcDbVertex
100
AcDb2dVertex
 10
30.09361074692515
 20
6.639017454901287
 30
0.0
  0
VERTEX
  5
242
330
23F
100
AcDbEntity
  8
CADs
 62
     7
420
 16777215
370
    18
100
AcDbVertex
100
AcDb2dVertex
 10
29.8152777187675
 20
6.799017726168649
 30
0.0
  0
VERTEX
  5
243
330
23F
100
AcDbEntity
  8
CADs
 62
     7
420
 16777215
370
    18
100
AcDbVertex
100
AcDb2dVertex
 10
27.31861091646723
 20
6.799017726168649
 30
0.0
  0
VERTEX
  5
244
330
23F
100
AcDbEntity
  8
CADs
 62
     7
420
 16777215
370
    18
100
AcDbVertex
100
AcDb2dVertex
 10
27.32027751531695
 20
6.799017726168649
 30
0.0
  0
VERTEX
  5
245
330
23F
100
AcDbEntity
  8
CADs
 62
     7
420
 16777215
370
    18
100
AcDbVertex
100
AcDb2dVertex
 10
27.3219441141668
 20
6.799017726168649
 30
0.0
  0
VERTEX
  5
246
330
23F
100
AcDbEntity
  8
CADs
 62
     7
420
 16777215
370
    18
100
AcDbVertex
100
AcDb2dVertex
 10
27.32527731186653
 20
6.797350279608319
 30
0.0
  0
VERTEX
  5
247
330
23F
100
AcDbEntity
  8
CADs
 62
     7
420
 16777215
370
    18
100
AcDbVertex
100
AcDb2dVertex
 10
27.32694475842681
 20
6.797350279608319
 30
0.0
  0
VERTEX
  5
248
330
23F
100
AcDbEntity
  8
CADs
 62
     7
420
 16777215
370
    18
100
AcDbVertex
100
AcDb2dVertex
 10
27.33027795612654
 20
6.795683680758505
 30
0.0
  0
VERTEX
  5
249
330
23F
100
AcDbEntity
  8
CADs
 62
     7
420
 16777215
370
    18
100
AcDbVertex
100
AcDb2dVertex
 10
27.33194455497624
 20
6.795683680758505
 30
0.0
  0
VERTEX
  5
24A
330
23F
100
AcDbEntity
  8
CADs
 62
     7
420
 16777215
370
    18
100
AcDbVertex
100
AcDb2dVertex
 10
27.33361115382612
 20
6.794017081908666
 30
0.0
  0
VERTEX
  5
24B
330
23F
100
AcDbEntity
  8
CADs
 62
     7
420
 16777215
370
    18
100
AcDbVertex
100
AcDb2dVertex
 10
27.33527775267597
 20
6.792350483058852
 30
0.0
  0
VERTEX
  5
24C
330
23F
100
AcDbEntity
  8
CADs
 62
     7
420
 16777215
370
    18
100
AcDbVertex
100
AcDb2dVertex
 10
27.33694435152584
 20
6.790683884209013
 30
0.0
  0
VERTEX
  5
24D
330
23F
100
AcDbEntity
  8
CADs
 62
     7
420
 16777215
370
    18
100
AcDbVertex
100
AcDb2dVertex
 10
27.33861095037554
 20
6.7890172853592
 30
0.0
  0
VERTEX
  5
24E
330
23F
100
AcDbEntity
  8
CADs
 62
     7
420
 16777215
370
    18
100
AcDbVertex
100
AcDb2dVertex
 10
27.33861095037554
 20
6.785684087659547
 30
0.0
  0
VERTEX
  5
24F
330
23F
100
AcDbEntity
  8
CADs
 62
     7
420
 16777215
370
    18
100
AcDbVertex
100
AcDb2dVertex
 10
27.34027754922542
 20
6.784017488809708
 30
0.0
  0
VERTEX
  5
250
330
23F
100
AcDbEntity
  8
CADs
 62
     7
420
 16777215
370
    18
100
AcDbVertex
100
AcDb2dVertex
 10
27.34194414807527
 20
6.782350889959893
 30
0.0
  0
VERTEX
  5
251
330
23F
100
AcDbEntity
  8
CADs
 62
     7
420
 16777215
370
    18
100
AcDbVertex
100
AcDb2dVertex
 10
27.34194414807527
 20
6.779017692260241
 30
0.0
  0
VERTEX
  5
252
330
23F
100
AcDbEntity
  8
CADs
 62
     7
420
 16777215
370
    18
100
AcDbVertex
100
AcDb2dVertex
 10
27.34194414807527
 20
6.777351093410402
 30
0.0
  0
VERTEX
  5
253
330
23F
100
AcDbEntity
  8
CADs
 62
     7
420
 16777215
370
    18
100
AcDbVertex
100
AcDb2dVertex
 10
27.34194414807527
 20
6.775684494560588
 30
0.0
  0
VERTEX
  5
254
330
23F
100
AcDbEntity
  8
CADs
 62
     7
420
 16777215
370
    18
100
AcDbVertex
100
AcDb2dVertex
 10
27.34194414807527
 20
6.66235068650936
 30
0.0
  0
VERTEX
  5
255
330
23F
100
AcDbEntity
  8
CADs
 62
     7
420
 16777215
370
    18
100
AcDbVertex
100
AcDb2dVertex
 10
27.34194414807527
 20
6.660684087659547
 30
0.0
  0
VERTEX
  5
256
330
23F
100
AcDbEntity
  8
CADs
 62
     7
420
 16777215
370
    18
100
AcDbVertex
100
AcDb2dVertex
 10
27.34194414807527
 20
6.659017488809708
 30
0.0
  0
VERTEX
  5
257
330
23F
100
AcDbEntity
  8
CADs
 62
     7
420
 16777215
370
    18
100
AcDbVertex
100
AcDb2dVertex
 10
27.34194414807527
 20
6.655684291110055
 30
0.0
  0
VERTEX
  5
258
330
23F
100
AcDbEntity
  8
CADs
 62
     7
420
 16777215
370
    18
100
AcDbVertex
100
AcDb2dVertex
 10
27.34027754922542
 20
6.654017692260241
 30
0.0
  0
VERTEX
  5
259
330
23F
100
AcDbEntity
  8
CADs
 62
     7
420
 16777215
370
    18
100
AcDbVertex
100
AcDb2dVertex
 10
27.33861095037554
 20
6.652351093410402
 30
0.0
  0
VERTEX
  5
25A
330
23F
100
AcDbEntity
  8
CADs
 62
     7
420
 16777215
370
    18
100
AcDbVertex
100
AcDb2dVertex
 10
27.33861095037554
 20
6.649017895710749
 30
0.0
  0
VERTEX
  5
25B
330
23F
100
AcDbEntity
  8
CADs
 62
     7
420
 16777215
370
    18
100
AcDbVertex
100
AcDb2dVertex
 10
27.33694435152584
 20
6.647351296860935
 30
0.0
  0
VERTEX
  5
25C
330
23F
100
AcDbEntity
  8
CADs
 62
     7
420
 16777215
370
    18
100
AcDbVertex
100
AcDb2dVertex
 10
27.33527775267597
 20
6.645684698011096
 30
0.0
  0
VERTEX
  5
25D
330
23F
100
AcDbEntity
  8
CADs
 62
     7
420
 16777215
370
    18
100
AcDbVertex
100
AcDb2dVertex
 10
27.33361115382612
 20
6.644018099161283
 30
0.0
  0
VERTEX
  5
25E
330
23F
100
AcDbEntity
  8
CADs
 62
     7
420
 16777215
370
    18
100
AcDbVertex
100
AcDb2dVertex
 10
27.33194455497624
 20
6.642351500311444
 30
0.0
  0
VERTEX
  5
25F
330
23F
100
AcDbEntity
  8
CADs
 62
     7
420
 16777215
370
    18
100
AcDbVertex
100
AcDb2dVertex
 10
27.33027795612654
 20
6.642351500311444
 30
0.0
  0
VERTEX
  5
260
330
23F
100
AcDbEntity
  8
CADs
 62
     7
420
 16777215
370
    18
100
AcDbVertex
100
AcDb2dVertex
 10
27.32694475842681
 20
6.640684053751114
 30
0.0
  0
VERTEX
  5
261
330
23F
100
AcDbEntity
  8
CADs
 62
     7
420
 16777215
370
    18
100
AcDbVertex
100
AcDb2dVertex
 10
27.32527731186653
 20
6.639017454901287
 30
0.0
  0
VERTEX
  5
262
330
23F
100
AcDbEntity
  8
CADs
 62
     7
420
 16777215
370
    18
100
AcDbVertex
100
AcDb2dVertex
 10
27.3219441141668
 20
6.639017454901287
 30
0.0
  0
VERTEX
  5
263
330
23F
100
AcDbEntity
  8
CADs
 62
     7
420
 16777215
370
    18
100
AcDbVertex
100
AcDb2dVertex
 10
27.32027751531695
 20
6.639017454901287
 30
0.0
  0
VERTEX
  5
264
330
23F
100
AcDbEntity
  8
CADs
 62
     7
420
 16777215
370
    18
100
AcDbVertex
100
AcDb2dVertex
 10
27.31861091646723
 20
6.639017454901287
 30
0.0
  0
VERTEX
  5
265
330
23F
100
AcDbEntity
  8
CADs
 62
     7
420
 16777215
370
    18
100
AcDbVertex
100
AcDb2dVertex
 10
27.88027761704221
 20
6.639017454901287
 30
0.0
  0
VERTEX
  5
266
330
23F
100
AcDbEntity
  8
CADs
 62
     7
420
 16777215
370
    18
100
AcDbVertex
100
AcDb2dVertex
 10
27.88027761704221
 20
6.639017454901287
 30
0.0
  0
SEQEND
  5
267
330
23F
100
AcDbEntity
  8
CADs
 62
     7
420
 16777215
370
    18
  0
POLYLINE
  5
268
330
1F
100
AcDbEntity
  8
CADs
 62
     7
420
 16777215
370
    18
100
AcDb2dPolyline
 66
     1
 10
0.0
 20
0.0
 30
0.0
  0
VERTEX
  5
269
330
268
100
AcDbEntity
  8
CADs
 62
     7
420
 16777215
370
    18
100
AcDbVertex
100
AcDb2dVertex
 10
27.3719446227932
 20
6.72901803134443
 30
0.0
  0
VERTEX
  5
26A
330
268
100
AcDbEntity
  8
CADs
 62
     7
420
 16777215
370
    18
100
AcDbVertex
100
AcDb2dVertex
 10
27.3736112216429
 20
6.72901803134443
 30
0.0
  0
VERTEX
  5
26B
330
268
100
AcDbEntity
  8
CADs
 62
     7
420
 16777215
370
    18
100
AcDbVertex
100
AcDb2dVertex
 10
27.37527782049278
 20
6.72901803134443
 30
0.0
  0
VERTEX
  5
26C
330
268
100
AcDbEntity
  8
CADs
 62
     7
420
 16777215
370
    18
100
AcDbVertex
100
AcDb2dVertex
 10
27.37694441934264
 20
6.727351432494616
 30
0.0
  0
VERTEX
  5
26D
330
268
100
AcDbEntity
  8
CADs
 62
     7
420
 16777215
370
    18
100
AcDbVertex
100
AcDb2dVertex
 10
27.37861101819251
 20
6.725684833644777
 30
0.0
  0
VERTEX
  5
26E
330
268
100
AcDbEntity
  8
CADs
 62
     7
420
 16777215
370
    18
100
AcDbVertex
100
AcDb2dVertex
 10
27.38027761704221
 20
6.724017387084447
 30
0.0
  0
VERTEX
  5
26F
330
268
100
AcDbEntity
  8
CADs
 62
     7
420
 16777215
370
    18
100
AcDbVertex
100
AcDb2dVertex
 10
27.38027761704221
 20
6.722350788234621
 30
0.0
  0
VERTEX
  5
270
330
268
100
AcDbEntity
  8
CADs
 62
     7
420
 16777215
370
    18
100
AcDbVertex
100
AcDb2dVertex
 10
27.38194421589209
 20
6.720684189384794
 30
0.0
  0
VERTEX
  5
271
330
268
100
AcDbEntity
  8
CADs
 62
     7
420
 16777215
370
    18
100
AcDbVertex
100
AcDb2dVertex
 10
27.38194421589209
 20
6.719017590534968
 30
0.0
  0
VERTEX
  5
272
330
268
100
AcDbEntity
  8
CADs
 62
     7
420
 16777215
370
    18
100
AcDbVertex
100
AcDb2dVertex
 10
27.38194421589209
 20
6.717350991685142
 30
0.0
  0
VERTEX
  5
273
330
268
100
AcDbEntity
  8
CADs
 62
     7
420
 16777215
370
    18
100
AcDbVertex
100
AcDb2dVertex
 10
27.38027761704221
 20
6.715684392835315
 30
0.0
  0
VERTEX
  5
274
330
268
100
AcDbEntity
  8
CADs
 62
     7
420
 16777215
370
    18
100
AcDbVertex
100
AcDb2dVertex
 10
27.38027761704221
 20
6.712350347425172
 30
0.0
  0
VERTEX
  5
275
330
268
100
AcDbEntity
  8
CADs
 62
     7
420
 16777215
370
    18
100
AcDbVertex
100
AcDb2dVertex
 10
27.37861101819251
 20
6.712350347425172
 30
0.0
  0
VERTEX
  5
276
330
268
100
AcDbEntity
  8
CADs
 62
     7
420
 16777215
370
    18
100
AcDbVertex
100
AcDb2dVertex
 10
27.37694441934264
 20
6.710683748575333
 30
0.0
  0
VERTEX
  5
277
330
268
100
AcDbEntity
  8
CADs
 62
     7
420
 16777215
370
    18
100
AcDbVertex
100
AcDb2dVertex
 10
27.37527782049278
 20
6.709017149725518
 30
0.0
  0
VERTEX
  5
278
330
268
100
AcDbEntity
  8
CADs
 62
     7
420
 16777215
370
    18
100
AcDbVertex
100
AcDb2dVertex
 10
27.3736112216429
 20
6.709017149725518
 30
0.0
  0
VERTEX
  5
279
330
268
100
AcDbEntity
  8
CADs
 62
     7
420
 16777215
370
    18
100
AcDbVertex
100
AcDb2dVertex
 10
27.3719446227932
 20
6.709017149725518
 30
0.0
  0
VERTEX
  5
27A
330
268
100
AcDbEntity
  8
CADs
 62
     7
420
 16777215
370
    18
100
AcDbVertex
100
AcDb2dVertex
 10
27.36861057738292
 20
6.709017149725518
 30
0.0
  0
VERTEX
  5
27B
330
268
100
AcDbEntity
  8
CADs
 62
     7
420
 16777215
370
    18
100
AcDbVertex
100
AcDb2dVertex
 10
27.3669439785332
 20
6.709017149725518
 30
0.0
  0
VERTEX
  5
27C
330
268
100
AcDbEntity
  8
CADs
 62
     7
420
 16777215
370
    18
100
AcDbVertex
100
AcDb2dVertex
 10
27.36527737968335
 20
6.710683748575333
 30
0.0
  0
VERTEX
  5
27D
330
268
100
AcDbEntity
  8
CADs
 62
     7
420
 16777215
370
    18
100
AcDbVertex
100
AcDb2dVertex
 10
27.36361078083347
 20
6.712350347425172
 30
0.0
  0
VERTEX
  5
27E
330
268
100
AcDbEntity
  8
CADs
 62
     7
420
 16777215
370
    18
100
AcDbVertex
100
AcDb2dVertex
 10
27.36194418198362
 20
6.712350347425172
 30
0.0
  0
VERTEX
  5
27F
330
268
100
AcDbEntity
  8
CADs
 62
     7
420
 16777215
370
    18
100
AcDbVertex
100
AcDb2dVertex
 10
27.36194418198362
 20
6.715684392835315
 30
0.0
  0
VERTEX
  5
280
330
268
100
AcDbEntity
  8
CADs
 62
     7
420
 16777215
370
    18
100
AcDbVertex
100
AcDb2dVertex
 10
27.36194418198362
 20
6.717350991685142
 30
0.0
  0
VERTEX
  5
281
330
268
100
AcDbEntity
  8
CADs
 62
     7
420
 16777215
370
    18
100
AcDbVertex
100
AcDb2dVertex
 10
27.36027758313389
 20
6.719017590534968
 30
0.0
  0
VERTEX
  5
282
330
268
100
AcDbEntity
  8
CADs
 62
     7
420
 16777215
370
    18
100
AcDbVertex
100
AcDb2dVertex
 10
27.36194418198362
 20
6.720684189384794
 30
0.0
  0
VERTEX
  5
283
330
268
100
AcDbEntity
  8
CADs
 62
     7
420
 16777215
370
    18
100
AcDbVertex
100
AcDb2dVertex
 10
27.36194418198362
 20
6.722350788234621
 30
0.0
  0
VERTEX
  5
284
330
268
100
AcDbEntity
  8
CADs
 62
     7
420
 16777215
370
    18
100
AcDbVertex
100
AcDb2dVertex
 10
27.36194418198362
 20
6.724017387084447
 30
0.0
  0
VERTEX
  5
285
330
268
100
AcDbEntity
  8
CADs
 62
     7
420
 16777215
370
    18
100
AcDbVertex
100
AcDb2dVertex
 10
27.36361078083347
 20
6.725684833644777
 30
0.0
  0
VERTEX
  5
286
330
268
100
AcDbEntity
  8
CADs
 62
     7
420
 16777215
370
    18
100
AcDbVertex
100
AcDb2dVertex
 10
27.36527737968335
 20
6.727351432494616
 30
0.0
  0
VERTEX
  5
287
330
268
100
AcDbEntity
  8
CADs
 62
     7
420
 16777215
370
    18
100
AcDbVertex
100
AcDb2dVertex
 10
27.3669439785332
 20
6.72901803134443
 30
0.0
  0
VERTEX
  5
288
330
268
100
AcDbEntity
  8
CADs
 62
     7
420
 16777215
370
    18
100
AcDbVertex
100
AcDb2dVertex
 10
27.36861057738292
 20
6.72901803134443
 30
0.0
  0
VERTEX
  5
289
330
268
100
AcDbEntity
  8
CADs
 62
     7
420
 16777215
370
    18
100
AcDbVertex
100
AcDb2dVertex
 10
27.3719446227932
 20
6.72901803134443
 30
0.0
  0
SEQEND
  5
28A
330
268
100
AcDbEntity
  8
CADs
 62
     7
420
 16777215
370
    18
  0
POLYLINE
  5
28B
330
1F
100
AcDbEntity
  8
CADs
 62
     7
420
 16777215
370
    18
100
AcDb2dPolyline
 66
     1
 10
0.0
 20
0.0
 30
0.0
  0
VERTEX
  5
28C
330
28B
100
AcDbEntity
  8
CADs
 62
     7
420
 16777215
370
    18
100
AcDbVertex
100
AcDb2dVertex
 10
26.71027775267597
 20
6.639017454901287
 30
0.0
  0
VERTEX
  5
28D
330
28B
100
AcDbEntity
  8
CADs
 62
     7
420
 16777215
370
    18
100
AcDbVertex
100
AcDb2dVertex
 10
26.71027775267597
 20
6.799017726168649
 30
0.0
  0
VERTEX
  5
28E
330
28B
100
AcDbEntity
  8
CADs
 62
     7
420
 16777215
370
    18
100
AcDbVertex
100
AcDb2dVertex
 10
27.07527731186653
 20
6.799017726168649
 30
0.0
  0
SEQEND
  5
28F
330
28B
100
AcDbEntity
  8
CADs
 62
     7
420
 16777215
370
    18
  0
POLYLINE
  5
290
330
1F
100
AcDbEntity
  8
CADs
 62
     7
420
 16777215
370
    18
100
AcDb2dPolyline
 66
     1
 10
0.0
 20
0.0
 30
0.0
  0
VERTEX
  5
291
330
290
100
AcDbEntity
  8
CADs
 62
     7
420
 16777215
370
    18
100
AcDbVertex
100
AcDb2dVertex
 10
26.71027775267597
 20
6.639017454901287
 30
0.0
  0
VERTEX
  5
292
330
290
100
AcDbEntity
  8
CADs
 62
     7
420
 16777215
370
    18
100
AcDbVertex
100
AcDb2dVertex
 10
27.07527731186653
 20
6.639017454901287
 30
0.0
  0
VERTEX
  5
293
330
290
100
AcDbEntity
  8
CADs
 62
     7
420
 16777215
370
    18
100
AcDbVertex
100
AcDb2dVertex
 10
27.0719441141668
 20
6.639017454901287
 30
0.0
  0
VERTEX
  5
294
330
290
100
AcDbEntity
  8
CADs
 62
     7
420
 16777215
370
    18
100
AcDbVertex
100
AcDb2dVertex
 10
27.07027751531695
 20
6.639017454901287
 30
0.0
  0
VERTEX
  5
295
330
290
100
AcDbEntity
  8
CADs
 62
     7
420
 16777215
370
    18
100
AcDbVertex
100
AcDb2dVertex
 10
27.06694431761737
 20
6.639017454901287
 30
0.0
  0
VERTEX
  5
296
330
290
100
AcDbEntity
  8
CADs
 62
     7
420
 16777215
370
    18
100
AcDbVertex
100
AcDb2dVertex
 10
27.0652777187675
 20
6.640684053751114
 30
0.0
  0
VERTEX
  5
297
330
290
100
AcDbEntity
  8
CADs
 62
     7
420
 16777215
370
    18
100
AcDbVertex
100
AcDb2dVertex
 10
27.06361111991765
 20
6.642351500311444
 30
0.0
  0
VERTEX
  5
298
330
290
100
AcDbEntity
  8
CADs
 62
     7
420
 16777215
370
    18
100
AcDbVertex
100
AcDb2dVertex
 10
27.06027792221807
 20
6.642351500311444
 30
0.0
  0
VERTEX
  5
299
330
290
100
AcDbEntity
  8
CADs
 62
     7
420
 16777215
370
    18
100
AcDbVertex
100
AcDb2dVertex
 10
27.05861132336819
 20
6.644018099161283
 30
0.0
  0
VERTEX
  5
29A
330
290
100
AcDbEntity
  8
CADs
 62
     7
420
 16777215
370
    18
100
AcDbVertex
100
AcDb2dVertex
 10
27.05694472451834
 20
6.645684698011096
 30
0.0
  0
VERTEX
  5
29B
330
290
100
AcDbEntity
  8
CADs
 62
     7
420
 16777215
370
    18
100
AcDbVertex
100
AcDb2dVertex
 10
27.05527727795806
 20
6.647351296860935
 30
0.0
  0
VERTEX
  5
29C
330
290
100
AcDbEntity
  8
CADs
 62
     7
420
 16777215
370
    18
100
AcDbVertex
100
AcDb2dVertex
 10
27.05527727795806
 20
6.649017895710749
 30
0.0
  0
VERTEX
  5
29D
330
290
100
AcDbEntity
  8
CADs
 62
     7
420
 16777215
370
    18
100
AcDbVertex
100
AcDb2dVertex
 10
27.05361067910818
 20
6.652351093410402
 30
0.0
  0
VERTEX
  5
29E
330
290
100
AcDbEntity
  8
CADs
 62
     7
420
 16777215
370
    18
100
AcDbVertex
100
AcDb2dVertex
 10
27.05194408025848
 20
6.654017692260241
 30
0.0
  0
VERTEX
  5
29F
330
290
100
AcDbEntity
  8
CADs
 62
     7
420
 16777215
370
    18
100
AcDbVertex
100
AcDb2dVertex
 10
27.05194408025848
 20
6.655684291110055
 30
0.0
  0
VERTEX
  5
2A0
330
290
100
AcDbEntity
  8
CADs
 62
     7
420
 16777215
370
    18
100
AcDbVertex
100
AcDb2dVertex
 10
27.05027748140861
 20
6.659017488809708
 30
0.0
  0
VERTEX
  5
2A1
330
290
100
AcDbEntity
  8
CADs
 62
     7
420
 16777215
370
    18
100
AcDbVertex
100
AcDb2dVertex
 10
27.05027748140861
 20
6.660684087659547
 30
0.0
  0
VERTEX
  5
2A2
330
290
100
AcDbEntity
  8
CADs
 62
     7
420
 16777215
370
    18
100
AcDbVertex
100
AcDb2dVertex
 10
27.05027748140861
 20
6.66235068650936
 30
0.0
  0
VERTEX
  5
2A3
330
290
100
AcDbEntity
  8
CADs
 62
     7
420
 16777215
370
    18
100
AcDbVertex
100
AcDb2dVertex
 10
27.05027748140861
 20
6.775684494560588
 30
0.0
  0
SEQEND
  5
2A4
330
290
100
AcDbEntity
  8
CADs
 62
     7
420
 16777215
370
    18
  0
POLYLINE
  5
2A5
330
1F
100
AcDbEntity
  8
CADs
 62
     7
420
 16777215
370
    18
100
AcDb2dPolyline
 66
     1
 10
0.0
 20
0.0
 30
0.0
  0
VERTEX
  5
2A6
330
2A5
100
AcDbEntity
  8
CADs
 62
     7
420
 16777215
370
    18
100
AcDbVertex
100
AcDb2dVertex
 10
27.02194445325098
 20
6.72901803134443
 30
0.0
  0
VERTEX
  5
2A7
330
2A5
100
AcDbEntity
  8
CADs
 62
     7
420
 16777215
370
    18
100
AcDbVertex
100
AcDb2dVertex
 10
27.02361105210083
 20
6.72901803134443
 30
0.0
  0
VERTEX
  5
2A8
330
2A5
100
AcDbEntity
  8
CADs
 62
     7
420
 16777215
370
    18
100
AcDbVertex
100
AcDb2dVertex
 10
27.02527765095071
 20
6.72901803134443
 30
0.0
  0
VERTEX
  5
2A9
330
2A5
100
AcDbEntity
  8
CADs
 62
     7
420
 16777215
370
    18
100
AcDbVertex
100
AcDb2dVertex
 10
27.02694424980056
 20
6.727351432494616
 30
0.0
  0
VERTEX
  5
2AA
330
2A5
100
AcDbEntity
  8
CADs
 62
     7
420
 16777215
370
    18
100
AcDbVertex
100
AcDb2dVertex
 10
27.02861084865028
 20
6.725684833644777
 30
0.0
  0
VERTEX
  5
2AB
330
2A5
100
AcDbEntity
  8
CADs
 62
     7
420
 16777215
370
    18
100
AcDbVertex
100
AcDb2dVertex
 10
27.03027744750014
 20
6.724017387084447
 30
0.0
  0
VERTEX
  5
2AC
330
2A5
100
AcDbEntity
  8
CADs
 62
     7
420
 16777215
370
    18
100
AcDbVertex
100
AcDb2dVertex
 10
27.03027744750014
 20
6.722350788234621
 30
0.0
  0
VERTEX
  5
2AD
330
2A5
100
AcDbEntity
  8
CADs
 62
     7
420
 16777215
370
    18
100
AcDbVertex
100
AcDb2dVertex
 10
27.03194404635001
 20
6.720684189384794
 30
0.0
  0
VERTEX
  5
2AE
330
2A5
100
AcDbEntity
  8
CADs
 62
     7
420
 16777215
370
    18
100
AcDbVertex
100
AcDb2dVertex
 10
27.03194404635001
 20
6.719017590534968
 30
0.0
  0
VERTEX
  5
2AF
330
2A5
100
AcDbEntity
  8
CADs
 62
     7
420
 16777215
370
    18
100
AcDbVertex
100
AcDb2dVertex
 10
27.03194404635001
 20
6.717350991685142
 30
0.0
  0
VERTEX
  5
2B0
330
2A5
100
AcDbEntity
  8
CADs
 62
     7
420
 16777215
370
    18
100
AcDbVertex
100
AcDb2dVertex
 10
27.03027744750014
 20
6.715684392835315
 30
0.0
  0
VERTEX
  5
2B1
330
2A5
100
AcDbEntity
  8
CADs
 62
     7
420
 16777215
370
    18
100
AcDbVertex
100
AcDb2dVertex
 10
27.03027744750014
 20
6.712350347425172
 30
0.0
  0
VERTEX
  5
2B2
330
2A5
100
AcDbEntity
  8
CADs
 62
     7
420
 16777215
370
    18
100
AcDbVertex
100
AcDb2dVertex
 10
27.02861084865028
 20
6.712350347425172
 30
0.0
  0
VERTEX
  5
2B3
330
2A5
100
AcDbEntity
  8
CADs
 62
     7
420
 16777215
370
    18
100
AcDbVertex
100
AcDb2dVertex
 10
27.02694424980056
 20
6.710683748575333
 30
0.0
  0
VERTEX
  5
2B4
330
2A5
100
AcDbEntity
  8
CADs
 62
     7
420
 16777215
370
    18
100
AcDbVertex
100
AcDb2dVertex
 10
27.02527765095071
 20
6.709017149725518
 30
0.0
  0
VERTEX
  5
2B5
330
2A5
100
AcDbEntity
  8
CADs
 62
     7
420
 16777215
370
    18
100
AcDbVertex
100
AcDb2dVertex
 10
27.02361105210083
 20
6.709017149725518
 30
0.0
  0
VERTEX
  5
2B6
330
2A5
100
AcDbEntity
  8
CADs
 62
     7
420
 16777215
370
    18
100
AcDbVertex
100
AcDb2dVertex
 10
27.02194445325098
 20
6.709017149725518
 30
0.0
  0
VERTEX
  5
2B7
330
2A5
100
AcDbEntity
  8
CADs
 62
     7
420
 16777215
370
    18
100
AcDbVertex
100
AcDb2dVertex
 10
27.0186112555514
 20
6.709017149725518
 30
0.0
  0
VERTEX
  5
2B8
330
2A5
100
AcDbEntity
  8
CADs
 62
     7
420
 16777215
370
    18
100
AcDbVertex
100
AcDb2dVertex
 10
27.01694465670153
 20
6.709017149725518
 30
0.0
  0
VERTEX
  5
2B9
330
2A5
100
AcDbEntity
  8
CADs
 62
     7
420
 16777215
370
    18
100
AcDbVertex
100
AcDb2dVertex
 10
27.01527805785167
 20
6.710683748575333
 30
0.0
  0
VERTEX
  5
2BA
330
2A5
100
AcDbEntity
  8
CADs
 62
     7
420
 16777215
370
    18
100
AcDbVertex
100
AcDb2dVertex
 10
27.01361061129139
 20
6.712350347425172
 30
0.0
  0
VERTEX
  5
2BB
330
2A5
100
AcDbEntity
  8
CADs
 62
     7
420
 16777215
370
    18
100
AcDbVertex
100
AcDb2dVertex
 10
27.01194401244152
 20
6.712350347425172
 30
0.0
  0
VERTEX
  5
2BC
330
2A5
100
AcDbEntity
  8
CADs
 62
     7
420
 16777215
370
    18
100
AcDbVertex
100
AcDb2dVertex
 10
27.01194401244152
 20
6.715684392835315
 30
0.0
  0
VERTEX
  5
2BD
330
2A5
100
AcDbEntity
  8
CADs
 62
     7
420
 16777215
370
    18
100
AcDbVertex
100
AcDb2dVertex
 10
27.01194401244152
 20
6.717350991685142
 30
0.0
  0
VERTEX
  5
2BE
330
2A5
100
AcDbEntity
  8
CADs
 62
     7
420
 16777215
370
    18
100
AcDbVertex
100
AcDb2dVertex
 10
27.01027741359182
 20
6.719017590534968
 30
0.0
  0
VERTEX
  5
2BF
330
2A5
100
AcDbEntity
  8
CADs
 62
     7
420
 16777215
370
    18
100
AcDbVertex
100
AcDb2dVertex
 10
27.01194401244152
 20
6.720684189384794
 30
0.0
  0
VERTEX
  5
2C0
330
2A5
100
AcDbEntity
  8
CADs
 62
     7
420
 16777215
370
    18
100
AcDbVertex
100
AcDb2dVertex
 10
27.01194401244152
 20
6.722350788234621
 30
0.0
  0
VERTEX
  5
2C1
330
2A5
100
AcDbEntity
  8
CADs
 62
     7
420
 16777215
370
    18
100
AcDbVertex
100
AcDb2dVertex
 10
27.01194401244152
 20
6.724017387084447
 30
0.0
  0
VERTEX
  5
2C2
330
2A5
100
AcDbEntity
  8
CADs
 62
     7
420
 16777215
370
    18
100
AcDbVertex
100
AcDb2dVertex
 10
27.01361061129139
 20
6.725684833644777
 30
0.0
  0
VERTEX
  5
2C3
330
2A5
100
AcDbEntity
  8
CADs
 62
     7
420
 16777215
370
    18
100
AcDbVertex
100
AcDb2dVertex
 10
27.01527805785167
 20
6.727351432494616
 30
0.0
  0
VERTEX
  5
2C4
330
2A5
100
AcDbEntity
  8
CADs
 62
     7
420
 16777215
370
    18
100
AcDbVertex
100
AcDb2dVertex
 10
27.01694465670153
 20
6.72901803134443
 30
0.0
  0
VERTEX
  5
2C5
330
2A5
100
AcDbEntity
  8
CADs
 62
     7
420
 16777215
370
    18
100
AcDbVertex
100
AcDb2dVertex
 10
27.0186112555514
 20
6.72901803134443
 30
0.0
  0
VERTEX
  5
2C6
330
2A5
100
AcDbEntity
  8
CADs
 62
     7
420
 16777215
370
    18
100
AcDbVertex
100
AcDb2dVertex
 10
27.02194445325098
 20
6.72901803134443
 30
0.0
  0
SEQEND
  5
2C7
330
2A5
100
AcDbEntity
  8
CADs
 62
     7
420
 16777215
370
    18
  0
POLYLINE
  5
2C8
330
1F
100
AcDbEntity
  8
CADs
 62
     7
420
 16777215
370
    18
100
AcDb2dPolyline
 66
     1
 10
0.0
 20
0.0
 30
0.0
  0
VERTEX
  5
2C9
330
2C8
100
AcDbEntity
  8
CADs
 62
     7
420
 16777215
370
    18
100
AcDbVertex
100
AcDb2dVertex
 10
27.05027748140861
 20
6.775684494560588
 30
0.0
  0
VERTEX
  5
2CA
330
2C8
100
AcDbEntity
  8
CADs
 62
     7
420
 16777215
370
    18
100
AcDbVertex
100
AcDb2dVertex
 10
27.05027748140861
 20
6.777351093410402
 30
0.0
  0
VERTEX
  5
2CB
330
2C8
100
AcDbEntity
  8
CADs
 62
     7
420
 16777215
370
    18
100
AcDbVertex
100
AcDb2dVertex
 10
27.05027748140861
 20
6.779017692260241
 30
0.0
  0
VERTEX
  5
2CC
330
2C8
100
AcDbEntity
  8
CADs
 62
     7
420
 16777215
370
    18
100
AcDbVertex
100
AcDb2dVertex
 10
27.05194408025848
 20
6.782350889959893
 30
0.0
  0
VERTEX
  5
2CD
330
2C8
100
AcDbEntity
  8
CADs
 62
     7
420
 16777215
370
    18
100
AcDbVertex
100
AcDb2dVertex
 10
27.05194408025848
 20
6.784017488809708
 30
0.0
  0
VERTEX
  5
2CE
330
2C8
100
AcDbEntity
  8
CADs
 62
     7
420
 16777215
370
    18
100
AcDbVertex
100
AcDb2dVertex
 10
27.05361067910818
 20
6.785684087659547
 30
0.0
  0
VERTEX
  5
2CF
330
2C8
100
AcDbEntity
  8
CADs
 62
     7
420
 16777215
370
    18
100
AcDbVertex
100
AcDb2dVertex
 10
27.05527727795806
 20
6.7890172853592
 30
0.0
  0
VERTEX
  5
2D0
330
2C8
100
AcDbEntity
  8
CADs
 62
     7
420
 16777215
370
    18
100
AcDbVertex
100
AcDb2dVertex
 10
27.05527727795806
 20
6.790683884209013
 30
0.0
  0
VERTEX
  5
2D1
330
2C8
100
AcDbEntity
  8
CADs
 62
     7
420
 16777215
370
    18
100
AcDbVertex
100
AcDb2dVertex
 10
27.05694472451834
 20
6.792350483058852
 30
0.0
  0
VERTEX
  5
2D2
330
2C8
100
AcDbEntity
  8
CADs
 62
     7
420
 16777215
370
    18
100
AcDbVertex
100
AcDb2dVertex
 10
27.05861132336819
 20
6.794017081908666
 30
0.0
  0
VERTEX
  5
2D3
330
2C8
100
AcDbEntity
  8
CADs
 62
     7
420
 16777215
370
    18
100
AcDbVertex
100
AcDb2dVertex
 10
27.06027792221807
 20
6.795683680758505
 30
0.0
  0
VERTEX
  5
2D4
330
2C8
100
AcDbEntity
  8
CADs
 62
     7
420
 16777215
370
    18
100
AcDbVertex
100
AcDb2dVertex
 10
27.06361111991765
 20
6.795683680758505
 30
0.0
  0
VERTEX
  5
2D5
330
2C8
100
AcDbEntity
  8
CADs
 62
     7
420
 16777215
370
    18
100
AcDbVertex
100
AcDb2dVertex
 10
27.0652777187675
 20
6.797350279608319
 30
0.0
  0
VERTEX
  5
2D6
330
2C8
100
AcDbEntity
  8
CADs
 62
     7
420
 16777215
370
    18
100
AcDbVertex
100
AcDb2dVertex
 10
27.06694431761737
 20
6.797350279608319
 30
0.0
  0
VERTEX
  5
2D7
330
2C8
100
AcDbEntity
  8
CADs
 62
     7
420
 16777215
370
    18
100
AcDbVertex
100
AcDb2dVertex
 10
27.07027751531695
 20
6.799017726168649
 30
0.0
  0
VERTEX
  5
2D8
330
2C8
100
AcDbEntity
  8
CADs
 62
     7
420
 16777215
370
    18
100
AcDbVertex
100
AcDb2dVertex
 10
27.0719441141668
 20
6.799017726168649
 30
0.0
  0
VERTEX
  5
2D9
330
2C8
100
AcDbEntity
  8
CADs
 62
     7
420
 16777215
370
    18
100
AcDbVertex
100
AcDb2dVertex
 10
27.07527731186653
 20
6.799017726168649
 30
0.0
  0
SEQEND
  5
2DA
330
2C8
100
AcDbEntity
  8
CADs
 62
     7
420
 16777215
370
    18
  0
POLYLINE
  5
2DB
330
1F
100
AcDbEntity
  8
CADs
 62
     7
420
 16777215
370
    18
100
AcDb2dPolyline
 66
     1
 10
0.0
 20
0.0
 30
0.0
  0
VERTEX
  5
2DC
330
2DB
100
AcDbEntity
  8
CADs
 62
     7
420
 16777215
370
    18
100
AcDbVertex
100
AcDb2dVertex
 10
26.71027775267597
 20
6.639017454901287
 30
0.0
  0
VERTEX
  5
2DD
330
2DB
100
AcDbEntity
  8
CADs
 62
     7
420
 16777215
370
    18
100
AcDbVertex
100
AcDb2dVertex
 10
26.71027775267597
 20
6.617350822143041
 30
0.0
  0
VERTEX
  5
2DE
330
2DB
100
AcDbEntity
  8
CADs
 62
     7
420
 16777215
370
    18
100
AcDbVertex
100
AcDb2dVertex
 10
30.13194421589209
 20
6.617350822143041
 30
0.0
  0
SEQEND
  5
2DF
330
2DB
100
AcDbEntity
  8
CADs
 62
     7
420
 16777215
370
    18
  0
POLYLINE
  5
2E0
330
1F
100
AcDbEntity
  8
CADs
 62
     7
420
 16777215
370
    18
100
AcDb2dPolyline
 66
     1
 10
0.0
 20
0.0
 30
0.0
  0
VERTEX
  5
2E1
330
2E0
100
AcDbEntity
  8
CADs
 62
     7
420
 16777215
370
    18
100
AcDbVertex
100
AcDb2dVertex
 10
27.07527731186653
 20
6.639017454901287
 30
0.0
  0
VERTEX
  5
2E2
330
2E0
100
AcDbEntity
  8
CADs
 62
     7
420
 16777215
370
    18
100
AcDbVertex
100
AcDb2dVertex
 10
27.31861091646723
 20
6.639017454901287
 30
0.0
  0
SEQEND
  5
2E3
330
2E0
100
AcDbEntity
  8
CADs
 62
     7
420
 16777215
370
    18
  0
POLYLINE
  5
2E4
330
1F
100
AcDbEntity
  8
CADs
 62
     7
420
 16777215
370
    18
100
AcDb2dPolyline
 66
     1
 10
0.0
 20
0.0
 30
0.0
  0
VERTEX
  5
2E5
330
2E4
100
AcDbEntity
  8
CADs
 62
     7
420
 16777215
370
    18
100
AcDbVertex
100
AcDb2dVertex
 10
30.09361074692515
 20
6.639017454901287
 30
0.0
  0
VERTEX
  5
2E6
330
2E4
100
AcDbEntity
  8
CADs
 62
     7
420
 16777215
370
    18
100
AcDbVertex
100
AcDb2dVertex
 10
30.13194421589209
 20
6.617350822143041
 30
0.0
  0
SEQEND
  5
2E7
330
2E4
100
AcDbEntity
  8
CADs
 62
     7
420
 16777215
370
    18
  0
POLYLINE
  5
2E8
330
1F
100
AcDbEntity
  8
CADs
 62
     7
420
 16777215
370
    18
100
AcDb2dPolyline
 66
     1
 10
0.0
 20
0.0
 30
0.0
  0
VERTEX
  5
2E9
330
2E8
100
AcDbEntity
  8
CADs
 62
     7
420
 16777215
370
    18
100
AcDbVertex
100
AcDb2dVertex
 10
26.71027775267597
 20
6.799017726168649
 30
0.0
  0
VERTEX
  5
2EA
330
2E8
100
AcDbEntity
  8
CADs
 62
     7
420
 16777215
370
    18
100
AcDbVertex
100
AcDb2dVertex
 10
26.71027775267597
 20
6.820684358926908
 30
0.0
  0
VERTEX
  5
2EB
330
2E8
100
AcDbEntity
  8
CADs
 62
     7
420
 16777215
370
    18
100
AcDbVertex
100
AcDb2dVertex
 10
29.77694424980056
 20
6.820684358926908
 30
0.0
  0
SEQEND
  5
2EC
330
2E8
100
AcDbEntity
  8
CADs
 62
     7
420
 16777215
370
    18
  0
POLYLINE
  5
2ED
330
1F
100
AcDbEntity
  8
CADs
 62
     7
420
 16777215
370
    18
100
AcDb2dPolyline
 66
     1
 10
0.0
 20
0.0
 30
0.0
  0
VERTEX
  5
2EE
330
2ED
100
AcDbEntity
  8
CADs
 62
     7
420
 16777215
370
    18
100
AcDbVertex
100
AcDb2dVertex
 10
27.07527731186653
 20
6.799017726168649
 30
0.0
  0
VERTEX
  5
2EF
330
2ED
100
AcDbEntity
  8
CADs
 62
     7
420
 16777215
370
    18
100
AcDbVertex
100
AcDb2dVertex
 10
27.31861091646723
 20
6.799017726168649
 30
0.0
  0
SEQEND
  5
2F0
330
2ED
100
AcDbEntity
  8
CADs
 62
     7
420
 16777215
370
    18
  0
POLYLINE
  5
2F1
330
1F
100
AcDbEntity
  8
CADs
 62
     7
420
 16777215
370
    18
100
AcDb2dPolyline
 66
     1
 10
0.0
 20
0.0
 30
0.0
  0
VERTEX
  5
2F2
330
2F1
100
AcDbEntity
  8
CADs
 62
     7
420
 16777215
370
    18
100
AcDbVertex
100
AcDb2dVertex
 10
29.77694424980056
 20
6.820684358926908
 30
0.0
  0
VERTEX
  5
2F3
330
2F1
100
AcDbEntity
  8
CADs
 62
     7
420
 16777215
370
    18
100
AcDbVertex
100
AcDb2dVertex
 10
29.8152777187675
 20
6.799017726168649
 30
0.0
  0
SEQEND
  5
2F4
330
2F1
100
AcDbEntity
  8
CADs
 62
     7
420
 16777215
370
    18
  0
POLYLINE
  5
2F5
330
1F
100
AcDbEntity
  8
CADs
 62
     7
420
 16777215
370
    18
100
AcDb2dPolyline
 66
     1
 10
0.0
 20
0.0
 30
0.0
  0
VERTEX
  5
2F6
330
2F5
100
AcDbEntity
  8
CADs
 62
     7
420
 16777215
370
    18
100
AcDbVertex
100
AcDb2dVertex
 10
26.71027775267597
 20
6.617350822143041
 30
0.0
  0
VERTEX
  5
2F7
330
2F5
100
AcDbEntity
  8
CADs
 62
     7
420
 16777215
370
    18
100
AcDbVertex
100
AcDb2dVertex
 10
26.71027775267597
 20
6.570684358926908
 30
0.0
  0
VERTEX
  5
2F8
330
2F5
100
AcDbEntity
  8
CADs
 62
     7
420
 16777215
370
    18
100
AcDbVertex
100
AcDb2dVertex
 10
30.21027775267597
 20
6.570684358926908
 30
0.0
  0
VERTEX
  5
2F9
330
2F5
100
AcDbEntity
  8
CADs
 62
     7
420
 16777215
370
    18
100
AcDbVertex
100
AcDb2dVertex
 10
30.13194421589209
 20
6.617350822143041
 30
0.0
  0
SEQEND
  5
2FA
330
2F5
100
AcDbEntity
  8
CADs
 62
     7
420
 16777215
370
    18
  0
POLYLINE
  5
2FB
330
1F
100
AcDbEntity
  8
CADs
 62
     7
420
 16777215
370
    18
100
AcDb2dPolyline
 66
     1
 10
0.0
 20
0.0
 30
0.0
  0
VERTEX
  5
2FC
330
2FB
100
AcDbEntity
  8
CADs
 62
     7
420
 16777215
370
    18
100
AcDbVertex
100
AcDb2dVertex
 10
26.71027775267597
 20
6.820684358926908
 30
0.0
  0
VERTEX
  5
2FD
330
2FB
100
AcDbEntity
  8
CADs
 62
     7
420
 16777215
370
    18
100
AcDbVertex
100
AcDb2dVertex
 10
26.71027775267597
 20
6.867350822143041
 30
0.0
  0
VERTEX
  5
2FE
330
2FB
100
AcDbEntity
  8
CADs
 62
     7
420
 16777215
370
    18
100
AcDbVertex
100
AcDb2dVertex
 10
29.69861071301668
 20
6.867350822143041
 30
0.0
  0
VERTEX
  5
2FF
330
2FB
100
AcDbEntity
  8
CADs
 62
     7
420
 16777215
370
    18
100
AcDbVertex
100
AcDb2dVertex
 10
29.77694424980056
 20
6.820684358926908
 30
0.0
  0
SEQEND
  5
300
330
2FB
100
AcDbEntity
  8
CADs
 62
     7
420
 16777215
370
    18
  0
POLYLINE
  5
301
330
1F
100
AcDbEntity
  8
CADs
 62
     7
420
 16777215
370
    18
100
AcDb2dPolyline
 66
     1
 10
0.0
 20
0.0
 30
0.0
  0
VERTEX
  5
302
330
301
100
AcDbEntity
  8
CADs
 62
     7
420
 16777215
370
    18
100
AcDbVertex
100
AcDb2dVertex
 10
30.21027775267597
 20
6.56735073737199
 30
0.0
  0
VERTEX
  5
303
330
301
100
AcDbEntity
  8
CADs
 62
     7
420
 16777215
370
    18
100
AcDbVertex
100
AcDb2dVertex
 10
30.21027775267597
 20
6.570684358926908
 30
0.0
  0
SEQEND
  5
304
330
301
100
AcDbEntity
  8
CADs
 62
     7
420
 16777215
370
    18
  0
POLYLINE
  5
305
330
1F
100
AcDbEntity
  8
CADs
 62
     7
420
 16777215
370
    18
100
AcDb2dPolyline
 66
     1
 10
0.0
 20
0.0
 30
0.0
  0
VERTEX
  5
306
330
305
100
AcDbEntity
  8
CADs
 62
     7
420
 16777215
370
    18
100
AcDbVertex
100
AcDb2dVertex
 10
26.71027775267597
 20
6.56735073737199
 30
0.0
  0
VERTEX
  5
307
330
305
100
AcDbEntity
  8
CADs
 62
     7
420
 16777215
370
    18
100
AcDbVertex
100
AcDb2dVertex
 10
26.71027775267597
 20
6.570684358926908
 30
0.0
  0
SEQEND
  5
308
330
305
100
AcDbEntity
  8
CADs
 62
     7
420
 16777215
370
    18
  0
POLYLINE
  5
309
330
1F
100
AcDbEntity
  8
CADs
 62
     7
420
 16777215
370
    18
100
AcDb2dPolyline
 66
     1
 10
0.0
 20
0.0
 30
0.0
  0
VERTEX
  5
30A
330
309
100
AcDbEntity
  8
CADs
 62
     7
420
 16777215
370
    18
100
AcDbVertex
100
AcDb2dVertex
 10
26.71027775267597
 20
6.867350822143041
 30
0.0
  0
VERTEX
  5
30B
330
309
100
AcDbEntity
  8
CADs
 62
     7
420
 16777215
370
    18
100
AcDbVertex
100
AcDb2dVertex
 10
26.71027775267597
 20
6.870684019842694
 30
0.0
  0
SEQEND
  5
30C
330
309
100
AcDbEntity
  8
CADs
 62
     7
420
 16777215
370
    18
  0
POLYLINE
  5
30D
330
1F
100
AcDbEntity
  8
CADs
 62
     7
420
 16777215
370
    18
100
AcDb2dPolyline
 66
     1
 10
0.0
 20
0.0
 30
0.0
  0
VERTEX
  5
30E
330
30D
100
AcDbEntity
  8
CADs
 62
     7
420
 16777215
370
    18
100
AcDbVertex
100
AcDb2dVertex
 10
29.6902777187675
 20
6.870684019842694
 30
0.0
  0
VERTEX
  5
30F
330
30D
100
AcDbEntity
  8
CADs
 62
     7
420
 16777215
370
    18
100
AcDbVertex
100
AcDb2dVertex
 10
29.69861071301668
 20
6.867350822143041
 30
0.0
  0
SEQEND
  5
310
330
30D
100
AcDbEntity
  8
CADs
 62
     7
420
 16777215
370
    18
  0
POLYLINE
  5
311
330
1F
100
AcDbEntity
  8
CADs
 62
     7
420
 16777215
370
    18
100
AcDb2dPolyline
 66
     1
 10
0.0
 20
0.0
 30
0.0
  0
VERTEX
  5
312
330
311
100
AcDbEntity
  8
CADs
 62
     7
420
 16777215
370
    18
100
AcDbVertex
100
AcDb2dVertex
 10
27.05361067910818
 20
6.650684494560588
 30
0.0
  0
VERTEX
  5
313
330
311
100
AcDbEntity
  8
CADs
 62
     7
420
 16777215
370
    18
100
AcDbVertex
100
AcDb2dVertex
 10
27.33861095037554
 20
6.650684494560588
 30
0.0
  0
SEQEND
  5
314
330
311
100
AcDbEntity
  8
CADs
 62
     7
420
 16777215
370
    18
  0
POLYLINE
  5
315
330
1F
100
AcDbEntity
  8
CADs
 62
     7
420
 16777215
370
    18
100
AcDb2dPolyline
 66
     1
 10
0.0
 20
0.0
 30
0.0
  0
VERTEX
  5
316
330
315
100
AcDbEntity
  8
CADs
 62
     7
420
 16777215
370
    18
100
AcDbVertex
100
AcDb2dVertex
 10
27.05361067910818
 20
6.78735068650936
 30
0.0
  0
VERTEX
  5
317
330
315
100
AcDbEntity
  8
CADs
 62
     7
420
 16777215
370
    18
100
AcDbVertex
100
AcDb2dVertex
 10
27.33861095037554
 20
6.78735068650936
 30
0.0
  0
SEQEND
  5
318
330
315
100
AcDbEntity
  8
CADs
 62
     7
420
 16777215
370
    18
  0
POLYLINE
  5
319
330
1F
100
AcDbEntity
  8
CADs
 62
     7
420
 16777215
370
    18
100
AcDb2dPolyline
 66
     1
 10
0.0
 20
0.0
 30
0.0
  0
VERTEX
  5
31A
330
319
100
AcDbEntity
  8
CADs
 62
     7
420
 16777215
370
    18
100
AcDbVertex
100
AcDb2dVertex
 10
27.05027748140861
 20
6.739017624443388
 30
0.0
  0
VERTEX
  5
31B
330
319
100
AcDbEntity
  8
CADs
 62
     7
420
 16777215
370
    18
100
AcDbVertex
100
AcDb2dVertex
 10
27.34194414807527
 20
6.739017624443388
 30
0.0
  0
SEQEND
  5
31C
330
319
100
AcDbEntity
  8
CADs
 62
     7
420
 16777215
370
    18
  0
POLYLINE
  5
31D
330
1F
100
AcDbEntity
  8
CADs
 62
     7
420
 16777215
370
    18
100
AcDb2dPolyline
 66
     1
 10
0.0
 20
0.0
 30
0.0
  0
VERTEX
  5
31E
330
31D
100
AcDbEntity
  8
CADs
 62
     7
420
 16777215
370
    18
100
AcDbVertex
100
AcDb2dVertex
 10
27.05027748140861
 20
6.69901755662656
 30
0.0
  0
VERTEX
  5
31F
330
31D
100
AcDbEntity
  8
CADs
 62
     7
420
 16777215
370
    18
100
AcDbVertex
100
AcDb2dVertex
 10
27.34194414807527
 20
6.69901755662656
 30
0.0
  0
SEQEND
  5
320
330
31D
100
AcDbEntity
  8
CADs
 62
     7
420
 16777215
370
    18
  0
POLYLINE
  5
321
330
1F
100
AcDbEntity
  8
CADs
 62
     7
420
 16777215
370
    18
100
AcDb2dPolyline
 66
     1
 10
0.0
 20
0.0
 30
0.0
  0
VERTEX
  5
322
330
321
100
AcDbEntity
  8
CADs
 62
     7
420
 16777215
370
    18
100
AcDbVertex
100
AcDb2dVertex
 10
19.34361117078027
 20
6.56735073737199
 30
0.0
  0
VERTEX
  5
323
330
321
100
AcDbEntity
  8
CADs
 62
     7
420
 16777215
370
    18
100
AcDbVertex
100
AcDb2dVertex
 10
22.84527776963013
 20
6.56735073737199
 30
0.0
  0
SEQEND
  5
324
330
321
100
AcDbEntity
  8
CADs
 62
     7
420
 16777215
370
    18
  0
POLYLINE
  5
325
330
1F
100
AcDbEntity
  8
CADs
 62
     7
420
 16777215
370
    18
100
AcDb2dPolyline
 66
     1
 10
0.0
 20
0.0
 30
0.0
  0
VERTEX
  5
326
330
325
100
AcDbEntity
  8
CADs
 62
     7
420
 16777215
370
    18
100
AcDbVertex
100
AcDb2dVertex
 10
22.84527776963013
 20
6.870684019842694
 30
0.0
  0
VERTEX
  5
327
330
325
100
AcDbEntity
  8
CADs
 62
     7
420
 16777215
370
    18
100
AcDbVertex
100
AcDb2dVertex
 10
19.86361120468874
 20
6.870684019842694
 30
0.0
  0
SEQEND
  5
328
330
325
100
AcDbEntity
  8
CADs
 62
     7
420
 16777215
370
    18
  0
POLYLINE
  5
329
330
1F
100
AcDbEntity
  8
CADs
 62
     7
420
 16777215
370
    18
100
AcDb2dPolyline
 66
     1
 10
0.0
 20
0.0
 30
0.0
  0
VERTEX
  5
32A
330
329
100
AcDbEntity
  8
CADs
 62
     7
420
 16777215
370
    18
100
AcDbVertex
100
AcDb2dVertex
 10
19.46194456345332
 20
6.639017454901287
 30
0.0
  0
VERTEX
  5
32B
330
329
100
AcDbEntity
  8
CADs
 62
     7
420
 16777215
370
    18
100
AcDbVertex
100
AcDb2dVertex
 10
22.84527776963013
 20
6.639017454901287
 30
0.0
  0
VERTEX
  5
32C
330
329
100
AcDbEntity
  8
CADs
 62
     7
420
 16777215
370
    18
100
AcDbVertex
100
AcDb2dVertex
 10
22.84527776963013
 20
6.617350822143041
 30
0.0
  0
VERTEX
  5
32D
330
329
100
AcDbEntity
  8
CADs
 62
     7
420
 16777215
370
    18
100
AcDbVertex
100
AcDb2dVertex
 10
19.42361109448638
 20
6.617350822143041
 30
0.0
  0
VERTEX
  5
32E
330
329
100
AcDbEntity
  8
CADs
 62
     7
420
 16777215
370
    18
100
AcDbVertex
100
AcDb2dVertex
 10
19.46194456345332
 20
6.639017454901287
 30
0.0
  0
SEQEND
  5
32F
330
329
100
AcDbEntity
  8
CADs
 62
     7
420
 16777215
370
    18
  0
POLYLINE
  5
330
330
1F
100
AcDbEntity
  8
CADs
 62
     7
420
 16777215
370
    18
100
AcDb2dPolyline
 66
     1
 10
0.0
 20
0.0
 30
0.0
  0
VERTEX
  5
331
330
330
100
AcDbEntity
  8
CADs
 62
     7
420
 16777215
370
    18
100
AcDbVertex
100
AcDb2dVertex
 10
19.77694446172818
 20
6.820684358926908
 30
0.0
  0
VERTEX
  5
332
330
330
100
AcDbEntity
  8
CADs
 62
     7
420
 16777215
370
    18
100
AcDbVertex
100
AcDb2dVertex
 10
22.84527776963013
 20
6.820684358926908
 30
0.0
  0
VERTEX
  5
333
330
330
100
AcDbEntity
  8
CADs
 62
     7
420
 16777215
370
    18
100
AcDbVertex
100
AcDb2dVertex
 10
22.84527776963013
 20
6.799017726168649
 30
0.0
  0
VERTEX
  5
334
330
330
100
AcDbEntity
  8
CADs
 62
     7
420
 16777215
370
    18
100
AcDbVertex
100
AcDb2dVertex
 10
19.7402778035386
 20
6.799017726168649
 30
0.0
  0
VERTEX
  5
335
330
330
100
AcDbEntity
  8
CADs
 62
     7
420
 16777215
370
    18
100
AcDbVertex
100
AcDb2dVertex
 10
19.77694446172818
 20
6.820684358926908
 30
0.0
  0
SEQEND
  5
336
330
330
100
AcDbEntity
  8
CADs
 62
     7
420
 16777215
370
    18
  0
POLYLINE
  5
337
330
1F
100
AcDbEntity
  8
CADs
 62
     7
420
 16777215
370
    18
100
AcDb2dPolyline
 66
     1
 10
0.0
 20
0.0
 30
0.0
  0
VERTEX
  5
338
330
337
100
AcDbEntity
  8
CADs
 62
     7
420
 16777215
370
    18
100
AcDbVertex
100
AcDb2dVertex
 10
22.84527776963013
 20
6.799017726168649
 30
0.0
  0
VERTEX
  5
339
330
337
100
AcDbEntity
  8
CADs
 62
     7
420
 16777215
370
    18
100
AcDbVertex
100
AcDb2dVertex
 10
22.84527776963013
 20
6.639017454901287
 30
0.0
  0
SEQEND
  5
33A
330
337
100
AcDbEntity
  8
CADs
 62
     7
420
 16777215
370
    18
  0
POLYLINE
  5
33B
330
1F
100
AcDbEntity
  8
CADs
 62
     7
420
 16777215
370
    18
100
AcDb2dPolyline
 66
     1
 10
0.0
 20
0.0
 30
0.0
  0
VERTEX
  5
33C
330
33B
100
AcDbEntity
  8
CADs
 62
     7
420
 16777215
370
    18
100
AcDbVertex
100
AcDb2dVertex
 10
19.46194456345332
 20
6.639017454901287
 30
0.0
  0
VERTEX
  5
33D
330
33B
100
AcDbEntity
  8
CADs
 62
     7
420
 16777215
370
    18
100
AcDbVertex
100
AcDb2dVertex
 10
19.7402778035386
 20
6.799017726168649
 30
0.0
  0
SEQEND
  5
33E
330
33B
100
AcDbEntity
  8
CADs
 62
     7
420
 16777215
370
    18
  0
POLYLINE
  5
33F
330
1F
100
AcDbEntity
  8
CADs
 62
     7
420
 16777215
370
    18
100
AcDb2dPolyline
 66
     1
 10
0.0
 20
0.0
 30
0.0
  0
VERTEX
  5
340
330
33F
100
AcDbEntity
  8
CADs
 62
     7
420
 16777215
370
    18
100
AcDbVertex
100
AcDb2dVertex
 10
22.84527776963013
 20
6.617350822143041
 30
0.0
  0
VERTEX
  5
341
330
33F
100
AcDbEntity
  8
CADs
 62
     7
420
 16777215
370
    18
100
AcDbVertex
100
AcDb2dVertex
 10
22.84527776963013
 20
6.570684358926908
 30
0.0
  0
VERTEX
  5
342
330
33F
100
AcDbEntity
  8
CADs
 62
     7
420
 16777215
370
    18
100
AcDbVertex
100
AcDb2dVertex
 10
19.34361117078027
 20
6.570684358926908
 30
0.0
  0
VERTEX
  5
343
330
33F
100
AcDbEntity
  8
CADs
 62
     7
420
 16777215
370
    18
100
AcDbVertex
100
AcDb2dVertex
 10
19.42361109448638
 20
6.617350822143041
 30
0.0
  0
SEQEND
  5
344
330
33F
100
AcDbEntity
  8
CADs
 62
     7
420
 16777215
370
    18
  0
POLYLINE
  5
345
330
1F
100
AcDbEntity
  8
CADs
 62
     7
420
 16777215
370
    18
100
AcDb2dPolyline
 66
     1
 10
0.0
 20
0.0
 30
0.0
  0
VERTEX
  5
346
330
345
100
AcDbEntity
  8
CADs
 62
     7
420
 16777215
370
    18
100
AcDbVertex
100
AcDb2dVertex
 10
22.84527776963013
 20
6.820684358926908
 30
0.0
  0
VERTEX
  5
347
330
345
100
AcDbEntity
  8
CADs
 62
     7
420
 16777215
370
    18
100
AcDbVertex
100
AcDb2dVertex
 10
22.84527776963013
 20
6.867350822143041
 30
0.0
  0
VERTEX
  5
348
330
345
100
AcDbEntity
  8
CADs
 62
     7
420
 16777215
370
    18
100
AcDbVertex
100
AcDb2dVertex
 10
19.85694459736181
 20
6.867350822143041
 30
0.0
  0
VERTEX
  5
349
330
345
100
AcDbEntity
  8
CADs
 62
     7
420
 16777215
370
    18
100
AcDbVertex
100
AcDb2dVertex
 10
19.77694446172818
 20
6.820684358926908
 30
0.0
  0
SEQEND
  5
34A
330
345
100
AcDbEntity
  8
CADs
 62
     7
420
 16777215
370
    18
  0
POLYLINE
  5
34B
330
1F
100
AcDbEntity
  8
CADs
 62
     7
420
 16777215
370
    18
100
AcDb2dPolyline
 66
     1
 10
0.0
 20
0.0
 30
0.0
  0
VERTEX
  5
34C
330
34B
100
AcDbEntity
  8
CADs
 62
     7
420
 16777215
370
    18
100
AcDbVertex
100
AcDb2dVertex
 10
19.34361117078027
 20
6.570684358926908
 30
0.0
  0
VERTEX
  5
34D
330
34B
100
AcDbEntity
  8
CADs
 62
     7
420
 16777215
370
    18
100
AcDbVertex
100
AcDb2dVertex
 10
19.34361117078027
 20
6.56735073737199
 30
0.0
  0
SEQEND
  5
34E
330
34B
100
AcDbEntity
  8
CADs
 62
     7
420
 16777215
370
    18
  0
POLYLINE
  5
34F
330
1F
100
AcDbEntity
  8
CADs
 62
     7
420
 16777215
370
    18
100
AcDb2dPolyline
 66
     1
 10
0.0
 20
0.0
 30
0.0
  0
VERTEX
  5
350
330
34F
100
AcDbEntity
  8
CADs
 62
     7
420
 16777215
370
    18
100
AcDbVertex
100
AcDb2dVertex
 10
22.84527776963013
 20
6.570684358926908
 30
0.0
  0
VERTEX
  5
351
330
34F
100
AcDbEntity
  8
CADs
 62
     7
420
 16777215
370
    18
100
AcDbVertex
100
AcDb2dVertex
 10
22.84527776963013
 20
6.56735073737199
 30
0.0
  0
SEQEND
  5
352
330
34F
100
AcDbEntity
  8
CADs
 62
     7
420
 16777215
370
    18
  0
POLYLINE
  5
353
330
1F
100
AcDbEntity
  8
CADs
 62
     7
420
 16777215
370
    18
100
AcDb2dPolyline
 66
     1
 10
0.0
 20
0.0
 30
0.0
  0
VERTEX
  5
354
330
353
100
AcDbEntity
  8
CADs
 62
     7
420
 16777215
370
    18
100
AcDbVertex
100
AcDb2dVertex
 10
22.84527776963013
 20
6.870684019842694
 30
0.0
  0
VERTEX
  5
355
330
353
100
AcDbEntity
  8
CADs
 62
     7
420
 16777215
370
    18
100
AcDbVertex
100
AcDb2dVertex
 10
22.84527776963013
 20
6.867350822143041
 30
0.0
  0
SEQEND
  5
356
330
353
100
AcDbEntity
  8
CADs
 62
     7
420
 16777215
370
    18
  0
POLYLINE
  5
357
330
1F
100
AcDbEntity
  8
CADs
 62
     7
420
 16777215
370
    18
100
AcDb2dPolyline
 66
     1
 10
0.0
 20
0.0
 30
0.0
  0
VERTEX
  5
358
330
357
100
AcDbEntity
  8
CADs
 62
     7
420
 16777215
370
    18
100
AcDbVertex
100
AcDb2dVertex
 10
19.85694459736181
 20
6.867350822143041
 30
0.0
  0
VERTEX
  5
359
330
357
100
AcDbEntity
  8
CADs
 62
     7
420
 16777215
370
    18
100
AcDbVertex
100
AcDb2dVertex
 10
19.86361120468874
 20
6.870684019842694
 30
0.0
  0
SEQEND
  5
35A
330
357
100
AcDbEntity
  8
CADs
 62
     7
420
 16777215
370
    18
  0
POLYLINE
  5
35B
330
1F
100
AcDbEntity
  8
CADs
 62
     7
420
 16777215
370
    25
100
AcDb2dPolyline
 66
     1
 10
0.0
 20
0.0
 30
0.0
  0
VERTEX
  5
35C
330
35B
100
AcDbEntity
  8
CADs
 62
     7
420
 16777215
370
    25
100
AcDbVertex
100
AcDb2dVertex
 10
27.02194445325098
 20
6.730684630194268
 30
0.0
  0
VERTEX
  5
35D
330
35B
100
AcDbEntity
  8
CADs
 62
     7
420
 16777215
370
    25
100
AcDbVertex
100
AcDb2dVertex
 10
27.02194445325098
 20
7.329017353176027
 30
0.0
  0
SEQEND
  5
35E
330
35B
100
AcDbEntity
  8
CADs
 62
     7
420
 16777215
370
    25
  0
POLYLINE
  5
35F
330
1F
100
AcDbEntity
  8
CADs
 62
     7
420
 16777215
370
    25
100
AcDb2dPolyline
 66
     1
 10
0.0
 20
0.0
 30
0.0
  0
VERTEX
  5
360
330
35F
100
AcDbEntity
  8
CADs
 62
     7
420
 16777215
370
    25
100
AcDbVertex
100
AcDb2dVertex
 10
27.3719446227932
 20
6.730684630194268
 30
0.0
  0
VERTEX
  5
361
330
35F
100
AcDbEntity
  8
CADs
 62
     7
420
 16777215
370
    25
100
AcDbVertex
100
AcDb2dVertex
 10
27.3719446227932
 20
7.329017353176027
 30
0.0
  0
SEQEND
  5
362
330
35F
100
AcDbEntity
  8
CADs
 62
     7
420
 16777215
370
    25
  0
POLYLINE
  5
363
330
1F
100
AcDbEntity
  8
CADs
 62
     7
420
 16777215
370
    25
100
AcDb2dPolyline
 66
     1
 10
0.0
 20
0.0
 30
0.0
  0
VERTEX
  5
364
330
363
100
AcDbEntity
  8
CADs
 62
     7
420
 16777215
370
    25
100
AcDbVertex
100
AcDb2dVertex
 10
27.3719446227932
 20
7.294017929619169
 30
0.0
  0
VERTEX
  5
365
330
363
100
AcDbEntity
  8
CADs
 62
     7
420
 16777215
370
    25
100
AcDbVertex
100
AcDb2dVertex
 10
27.40694404635001
 20
7.294017929619169
 30
0.0
  0
SEQEND
  5
366
330
363
100
AcDbEntity
  8
CADs
 62
     7
420
 16777215
370
    25
  0
MTEXT
  5
367
330
1F
100
AcDbEntity
  8
CADs
 62
     7
420
 16777215
100
AcDbMText
 10
27.41694641113281
 20
7.275687959459092
 30
0.0
 40
0.0480802816549937
 41
0.0
 46
0.0
 71
     7
 72
     1
  1
\fGotham Light|b0|i0|c0|p34;\W1;1.800 [45.72]
 73
     1
 44
1.0
  0
POLYLINE
  5
368
330
1F
100
AcDbEntity
  8
CADs
 62
     7
420
 16777215
370
    25
100
AcDb2dPolyline
 66
     1
 10
0.0
 20
0.0
 30
0.0
  0
VERTEX
  5
369
330
368
100
AcDbEntity
  8
CADs
 62
     7
420
 16777215
370
    25
100
AcDbVertex
100
AcDb2dVertex
 10
27.05027748140861
 20
6.730684630194268
 30
0.0
  0
VERTEX
  5
36A
330
368
100
AcDbEntity
  8
CADs
 62
     7
420
 16777215
370
    25
100
AcDbVertex
100
AcDb2dVertex
 10
27.05027748140861
 20
7.127350415241999
 30
0.0
  0
SEQEND
  5
36B
330
368
100
AcDbEntity
  8
CADs
 62
     7
420
 16777215
370
    25
  0
POLYLINE
  5
36C
330
1F
100
AcDbEntity
  8
CADs
 62
     7
420
 16777215
370
    25
100
AcDb2dPolyline
 66
     1
 10
0.0
 20
0.0
 30
0.0
  0
VERTEX
  5
36D
330
36C
100
AcDbEntity
  8
CADs
 62
     7
420
 16777215
370
    25
100
AcDbVertex
100
AcDb2dVertex
 10
27.34194414807527
 20
6.730684630194268
 30
0.0
  0
VERTEX
  5
36E
330
36C
100
AcDbEntity
  8
CADs
 62
     7
420
 16777215
370
    25
100
AcDbVertex
100
AcDb2dVertex
 10
27.34194414807527
 20
7.127350415241999
 30
0.0
  0
SEQEND
  5
36F
330
36C
100
AcDbEntity
  8
CADs
 62
     7
420
 16777215
370
    25
  0
POLYLINE
  5
370
330
1F
100
AcDbEntity
  8
CADs
 62
     7
420
 16777215
370
    25
100
AcDb2dPolyline
 66
     1
 10
0.0
 20
0.0
 30
0.0
  0
VERTEX
  5
371
330
370
100
AcDbEntity
  8
CADs
 62
     7
420
 16777215
370
    25
100
AcDbVertex
100
AcDb2dVertex
 10
27.34194414807527
 20
7.092350991685142
 30
0.0
  0
VERTEX
  5
372
330
370
100
AcDbEntity
  8
CADs
 62
     7
420
 16777215
370
    25
100
AcDbVertex
100
AcDb2dVertex
 10
27.37694441934264
 20
7.092350991685142
 30
0.0
  0
SEQEND
  5
373
330
370
100
AcDbEntity
  8
CADs
 62
     7
420
 16777215
370
    25
  0
MTEXT
  5
374
330
1F
100
AcDbEntity
  8
CADs
 62
     7
420
 16777215
100
AcDbMText
 10
27.38694424099392
 20
7.07568253411187
 30
0.0
 40
0.0480802816549937
 41
0.0
 46
0.0
 71
     7
 72
     1
  1
\fGotham Light|b0|i0|c0|p34;\W1;1.500 [38.10]
 73
     1
 44
1.0
  0
POLYLINE
  5
375
330
1F
100
AcDbEntity
  8
CADs
 62
     7
420
 16777215
370
    25
100
AcDb2dPolyline
 66
     1
 10
0.0
 20
0.0
 30
0.0
  0
VERTEX
  5
376
330
375
100
AcDbEntity
  8
CADs
 62
     7
420
 16777215
370
    25
100
AcDbVertex
100
AcDb2dVertex
 10
26.71027775267597
 20
6.554017522718127
 30
0.0
  0
VERTEX
  5
377
330
375
100
AcDbEntity
  8
CADs
 62
     7
420
 16777215
370
    25
100
AcDbVertex
100
AcDb2dVertex
 10
26.71027775267597
 20
6.254017437947077
 30
0.0
  0
SEQEND
  5
378
330
375
100
AcDbEntity
  8
CADs
 62
     7
420
 16777215
370
    25
  0
POLYLINE
  5
379
330
1F
100
AcDbEntity
  8
CADs
 62
     7
420
 16777215
370
    25
100
AcDb2dPolyline
 66
     1
 10
0.0
 20
0.0
 30
0.0
  0
VERTEX
  5
37A
330
379
100
AcDbEntity
  8
CADs
 62
     7
420
 16777215
370
    25
100
AcDbVertex
100
AcDb2dVertex
 10
27.1969441141668
 20
6.625683816392185
 30
0.0
  0
VERTEX
  5
37B
330
379
100
AcDbEntity
  8
CADs
 62
     7
420
 16777215
370
    25
100
AcDbVertex
100
AcDb2dVertex
 10
27.1969441141668
 20
6.254017437947077
 30
0.0
  0
SEQEND
  5
37C
330
379
100
AcDbEntity
  8
CADs
 62
     7
420
 16777215
370
    25
  0
MTEXT
  5
37D
330
1F
100
AcDbEntity
  8
CADs
 62
     7
420
 16777215
100
AcDbMText
 10
26.75693935818142
 20
6.270683076646592
 30
0.0
 40
0.0480802816549937
 41
0.0
 46
0.0
 71
     7
 72
     1
  1
\fGotham Light|b0|i0|c0|p34;\W1;2.500 [63.50]
 73
     1
 44
1.0
  0
POLYLINE
  5
37E
330
1F
100
AcDbEntity
  8
CADs
 62
     7
420
 16777215
370
    25
100
AcDb2dPolyline
 66
     1
 10
0.0
 20
0.0
 30
0.0
  0
VERTEX
  5
37F
330
37E
100
AcDbEntity
  8
CADs
 62
     7
420
 16777215
370
    25
100
AcDbVertex
100
AcDb2dVertex
 10
26.71027775267597
 20
6.554017522718127
 30
0.0
  0
VERTEX
  5
380
330
37E
100
AcDbEntity
  8
CADs
 62
     7
420
 16777215
370
    25
100
AcDbVertex
100
AcDb2dVertex
 10
26.71027775267597
 20
5.549017726168636
 30
0.0
  0
SEQEND
  5
381
330
37E
100
AcDbEntity
  8
CADs
 62
     7
420
 16777215
370
    25
  0
POLYLINE
  5
382
330
1F
100
AcDbEntity
  8
CADs
 62
     7
420
 16777215
370
    25
100
AcDb2dPolyline
 66
     1
 10
0.0
 20
0.0
 30
0.0
  0
VERTEX
  5
383
330
382
100
AcDbEntity
  8
CADs
 62
     7
420
 16777215
370
    25
100
AcDbVertex
100
AcDb2dVertex
 10
30.21027775267597
 20
6.554017522718127
 30
0.0
  0
VERTEX
  5
384
330
382
100
AcDbEntity
  8
CADs
 62
     7
420
 16777215
370
    25
100
AcDbVertex
100
AcDb2dVertex
 10
30.21027775267597
 20
5.549017726168636
 30
0.0
  0
SEQEND
  5
385
330
382
100
AcDbEntity
  8
CADs
 62
     7
420
 16777215
370
    25
  0
POLYLINE
  5
386
330
1F
100
AcDbEntity
  8
CADs
 62
     7
420
 16777215
370
    13
100
AcDb2dPolyline
 66
     1
 10
0.0
 20
0.0
 30
0.0
  0
VERTEX
  5
387
330
386
100
AcDbEntity
  8
CADs
 62
     7
420
 16777215
370
    13
100
AcDbVertex
100
AcDb2dVertex
 10
26.71431099525165
 20
5.584017573580746
 30
0.0
  0
VERTEX
  5
388
330
386
100
AcDbEntity
  8
CADs
 62
     7
420
 16777215
370
    13
100
AcDbVertex
100
AcDb2dVertex
 10
28.19595938584348
 20
5.584017573580746
 30
0.0
  0
SEQEND
  5
389
330
386
100
AcDbEntity
  8
CADs
 62
     7
420
 16777215
370
    13
  0
POLYLINE
  5
38A
330
1F
100
AcDbEntity
  8
CADs
 62
     7
420
 16777215
370
    13
100
AcDb2dPolyline
 66
     1
 10
0.0
 20
0.0
 30
0.0
  0
VERTEX
  5
38B
330
38A
100
AcDbEntity
  8
CADs
 62
     7
420
 16777215
370
    13
100
AcDbVertex
100
AcDb2dVertex
 10
30.2051296492468
 20
5.584017573580746
 30
0.0
  0
VERTEX
  5
38C
330
38A
100
AcDbEntity
  8
CADs
 62
     7
420
 16777215
370
    13
100
AcDbVertex
100
AcDb2dVertex
 10
28.78464321492291
 20
5.584017573580746
 30
0.0
  0
SEQEND
  5
38D
330
38A
100
AcDbEntity
  8
CADs
 62
     7
420
 16777215
370
    13
  0
MTEXT
  5
38E
330
1F
100
AcDbEntity
  8
CADs
 62
     7
420
 16777215
100
AcDbMText
 10
28.22361416286892
 20
5.567354626125759
 30
0.0
 40
0.0480802816549937
 41
0.0
 46
0.0
 71
     7
 72
     1
  1
\fGotham Light|b0|i0|c0|p34;\W1;18.000 [457.20]
 73
     1
 44
1.0
  0
POLYLINE
  5
38F
330
1F
100
AcDbEntity
  8
CADs
 62
     7
420
 16777215
370
    25
100
AcDb2dPolyline
 66
     1
 10
0.0
 20
0.0
 30
0.0
  0
VERTEX
  5
390
330
38F
100
AcDbEntity
  8
CADs
 62
     7
420
 16777215
370
    25
100
AcDbVertex
100
AcDb2dVertex
 10
30.23027778658431
 20
6.56735073737199
 30
0.0
  0
VERTEX
  5
391
330
38F
100
AcDbEntity
  8
CADs
 62
     7
420
 16777215
370
    25
100
AcDbVertex
100
AcDb2dVertex
 10
30.56194452106792
 20
6.56735073737199
 30
0.0
  0
SEQEND
  5
392
330
38F
100
AcDbEntity
  8
CADs
 62
     7
420
 16777215
370
    25
  0
SPLINE
  5
393
330
1F
100
AcDbEntity
  8
CADs
 62
     7
420
 16777215
370
    13
100
AcDbSpline
210
0.0
220
0.0
230
1.0
 70
     8
 71
     3
 72
     8
 73
     4
 74
     0
 42
0.0000000001
 43
0.0000000001
 12
1.0
 22
0.0
 32
0.0
 13
1.0
 23
0.0
 33
0.0
 40
0.0
 40
0.0
 40
0.0
 40
0.0
 40
1.0
 40
1.0
 40
1.0
 40
1.0
 10
30.52775896856042
 20
6.575405487217166
 30
0.0
 10
30.52775896856042
 20
6.68014533732609
 30
0.0
 10
30.46227411091167
 20
6.781852436183852
 30
0.0
 10
30.38127622001543
 20
6.831611347316652
 30
0.0
  0
SPLINE
  5
394
330
1F
100
AcDbEntity
  8
CADs
 62
     7
420
 16777215
370
    13
100
AcDbSpline
210
0.0
220
0.0
230
1.0
 70
     8
 71
     3
 72
     8
 73
     4
 74
     0
 42
0.0000000001
 43
0.0000000001
 12
1.0
 22
0.0
 32
0.0
 13
1.0
 23
0.0
 33
0.0
 40
0.0
 40
0.0
 40
0.0
 40
0.0
 40
1.0
 40
1.0
 40
1.0
 40
1.0
 10
30.21766554971375
 20
6.877345328978991
 30
0.0
 10
30.12026106973321
 20
6.8767858400467
 30
0.0
 10
30.00405971801582
 20
6.817759738929048
 30
0.0
 10
29.95589467745473
 20
6.725252280073732
 30
0.0
  0
POLYLINE
  5
395
330
1F
100
AcDbEntity
  8
CADs
370
     0
100
AcDb2dPolyline
 66
     1
 10
0.0
 20
0.0
 30
0.0
  0
VERTEX
  5
396
330
395
100
AcDbEntity
  8
CADs
370
     0
100
AcDbVertex
100
AcDb2dVertex
 10
29.95027731186653
 20
6.720684189384794
 30
0.0
  0
VERTEX
  5
499
330
395
100
AcDbEntity
  8
0
100
AcDbVertex
100
AcDb2dVertex
 10
29.95027731186653
 20
6.720684189384794
 30
0.0
  0
SEQEND
  5
397
330
395
100
AcDbEntity
  8
CADs
370
     0
  0
POLYLINE
  5
398
330
1F
100
AcDbEntity
  8
CADs
370
     0
100
AcDb2dPolyline
 66
     1
 10
0.0
 20
0.0
 30
0.0
  0
VERTEX
  5
399
330
398
100
AcDbEntity
  8
CADs
370
     0
100
AcDbVertex
100
AcDb2dVertex
 10
29.95027731186653
 20
6.720684189384794
 30
0.0
  0
VERTEX
  5
49A
330
398
100
AcDbEntity
  8
0
100
AcDbVertex
100
AcDb2dVertex
 10
29.95027731186653
 20
6.720684189384794
 30
0.0
  0
SEQEND
  5
39A
330
398
100
AcDbEntity
  8
CADs
370
     0
  0
MTEXT
  5
39B
330
1F
100
AcDbEntity
  8
CADs
 62
     7
420
 16777215
100
AcDbMText
 10
30.24083624945746
 20
6.840683619181315
 30
0.0
 40
0.0480802816549937
 41
0.0
 46
0.0
 71
     7
 72
     1
  1
\fGotham Light|b0|i0|c0|p34;\W1;150°
 73
     1
 44
1.0
  0
POLYLINE
  5
39C
330
1F
100
AcDbEntity
  8
CADs
 62
     7
420
 16777215
370
    25
100
AcDb2dPolyline
 66
     1
 10
0.0
 20
0.0
 30
0.0
  0
VERTEX
  5
39D
330
39C
100
AcDbEntity
  8
CADs
 62
     7
420
 16777215
370
    25
100
AcDbVertex
100
AcDb2dVertex
 10
26.69861071301668
 20
6.639017454901287
 30
0.0
  0
VERTEX
  5
39E
330
39C
100
AcDbEntity
  8
CADs
 62
     7
420
 16777215
370
    25
100
AcDbVertex
100
AcDb2dVertex
 10
26.06027792221807
 20
6.639017454901287
 30
0.0
  0
SEQEND
  5
39F
330
39C
100
AcDbEntity
  8
CADs
 62
     7
420
 16777215
370
    25
  0
POLYLINE
  5
3A0
330
1F
100
AcDbEntity
  8
CADs
 62
     7
420
 16777215
370
    25
100
AcDb2dPolyline
 66
     1
 10
0.0
 20
0.0
 30
0.0
  0
VERTEX
  5
3A1
330
3A0
100
AcDbEntity
  8
CADs
 62
     7
420
 16777215
370
    25
100
AcDbVertex
100
AcDb2dVertex
 10
26.69861071301668
 20
6.799017726168649
 30
0.0
  0
VERTEX
  5
3A2
330
3A0
100
AcDbEntity
  8
CADs
 62
     7
420
 16777215
370
    25
100
AcDbVertex
100
AcDb2dVertex
 10
26.06027792221807
 20
6.799017726168649
 30
0.0
  0
SEQEND
  5
3A3
330
3A0
100
AcDbEntity
  8
CADs
 62
     7
420
 16777215
370
    25
  0
POLYLINE
  5
3A4
330
1F
100
AcDbEntity
  8
CADs
 62
     7
420
 16777215
370
    25
100
AcDb2dPolyline
 66
     1
 10
0.0
 20
0.0
 30
0.0
  0
VERTEX
  5
3A5
330
3A4
100
AcDbEntity
  8
CADs
 62
     7
420
 16777215
370
    25
100
AcDbVertex
100
AcDb2dVertex
 10
26.09527734577485
 20
6.799017726168649
 30
0.0
  0
VERTEX
  5
3A6
330
3A4
100
AcDbEntity
  8
CADs
 62
     7
420
 16777215
370
    25
100
AcDbVertex
100
AcDb2dVertex
 10
26.09527734577485
 20
6.834017149725518
 30
0.0
  0
VERTEX
  5
3A7
330
3A4
100
AcDbEntity
  8
CADs
 62
     7
420
 16777215
370
    25
100
AcDbVertex
100
AcDb2dVertex
 10
26.13027761704221
 20
6.834017149725518
 30
0.0
  0
SEQEND
  5
3A8
330
3A4
100
AcDbEntity
  8
CADs
 62
     7
420
 16777215
370
    25
  0
MTEXT
  5
3A9
330
1F
100
AcDbEntity
  8
CADs
 62
     7
420
 16777215
100
AcDbMText
 10
26.14527214898003
 20
6.817354626125759
 30
0.0
 40
0.0480802816549937
 41
0.0
 46
0.0
 71
     7
 72
     1
  1
\fGotham Light|b0|i0|c0|p34;\W1;0.826 [20.97]
 73
     1
 44
1.0
  0
POLYLINE
  5
3AA
330
1F
100
AcDbEntity
  8
CADs
 62
     7
420
 16777215
370
    13
100
AcDb2dPolyline
 66
     1
 10
0.0
 20
0.0
 30
0.0
  0
VERTEX
  5
3AB
330
3AA
100
AcDbEntity
  8
CADs
 62
     7
420
 16777215
370
    13
100
AcDbVertex
100
AcDb2dVertex
 10
26.30194408025848
 20
7.297351127318822
 30
0.0
  0
VERTEX
  5
3AC
330
3AA
100
AcDbEntity
  8
CADs
 62
     7
420
 16777215
370
    13
100
AcDbVertex
100
AcDb2dVertex
 10
26.59694394462473
 20
7.297351127318822
 30
0.0
  0
VERTEX
  5
3AD
330
3AA
100
AcDbEntity
  8
CADs
 62
     7
420
 16777215
370
    13
100
AcDbVertex
100
AcDb2dVertex
 10
27.00635933643126
 20
6.732133000153933
 30
0.0
  0
SEQEND
  5
3AE
330
3AA
100
AcDbEntity
  8
CADs
 62
     7
420
 16777215
370
    13
  0
MTEXT
  5
3AF
330
1F
100
AcDbEntity
  8
CADs
 62
     7
420
 16777215
100
AcDbMText
 10
25.76361253526476
 20
7.274019665188259
 30
0.0
 40
0.0480802816549937
 41
0.0
 46
0.0
 71
     7
 72
     1
  1
\fGotham Light|b0|i0|c0|p34;\W1;2 X 6-32 UNC 2B
 73
     1
 44
1.0
  0
POLYLINE
  5
3B0
330
1F
100
AcDbEntity
  8
CADs
 62
     7
420
 16777215
370
    25
100
AcDb2dPolyline
 66
     1
 10
0.0
 20
0.0
 30
0.0
  0
VERTEX
  5
3B1
330
3B0
100
AcDbEntity
  8
CADs
 62
     7
420
 16777215
370
    25
100
AcDbVertex
100
AcDb2dVertex
 10
27.00361101819251
 20
6.719017590534968
 30
0.0
  0
VERTEX
  5
3B2
330
3B0
100
AcDbEntity
  8
CADs
 62
     7
420
 16777215
370
    25
100
AcDbVertex
100
AcDb2dVertex
 10
27.03861128945987
 20
6.719017590534968
 30
0.0
  0
SEQEND
  5
3B3
330
3B0
100
AcDbEntity
  8
CADs
 62
     7
420
 16777215
370
    25
  0
POLYLINE
  5
3B4
330
1F
100
AcDbEntity
  8
CADs
 62
     7
420
 16777215
370
    25
100
AcDb2dPolyline
 66
     1
 10
0.0
 20
0.0
 30
0.0
  0
VERTEX
  5
3B5
330
3B4
100
AcDbEntity
  8
CADs
 62
     7
420
 16777215
370
    25
100
AcDbVertex
100
AcDb2dVertex
 10
27.02194445325098
 20
6.700684155476374
 30
0.0
  0
VERTEX
  5
3B6
330
3B4
100
AcDbEntity
  8
CADs
 62
     7
420
 16777215
370
    25
100
AcDbVertex
100
AcDb2dVertex
 10
27.02194445325098
 20
6.735684426743735
 30
0.0
  0
SEQEND
  5
3B7
330
3B4
100
AcDbEntity
  8
CADs
 62
     7
420
 16777215
370
    25
  0
POLYLINE
  5
3B8
330
1F
100
AcDbEntity
  8
CADs
 62
     7
420
 16777215
370
    25
100
AcDb2dPolyline
 66
     1
 10
0.0
 20
0.0
 30
0.0
  0
VERTEX
  5
3B9
330
3B8
100
AcDbEntity
  8
CADs
 62
     7
420
 16777215
370
    25
100
AcDbVertex
100
AcDb2dVertex
 10
26.71027775267597
 20
6.554017522718127
 30
0.0
  0
VERTEX
  5
3BA
330
3B8
100
AcDbEntity
  8
CADs
 62
     7
420
 16777215
370
    25
100
AcDbVertex
100
AcDb2dVertex
 10
26.71027775267597
 20
5.945684358926908
 30
0.0
  0
SEQEND
  5
3BB
330
3B8
100
AcDbEntity
  8
CADs
 62
     7
420
 16777215
370
    25
  0
POLYLINE
  5
3BC
330
1F
100
AcDbEntity
  8
CADs
 62
     7
420
 16777215
370
    13
100
AcDb2dPolyline
 66
     1
 10
0.0
 20
0.0
 30
0.0
  0
VERTEX
  5
3BD
330
3BC
100
AcDbEntity
  8
CADs
 62
     7
420
 16777215
370
    13
100
AcDbVertex
100
AcDb2dVertex
 10
27.20207740808499
 20
6.288708910234517
 30
0.0
  0
VERTEX
  5
3BE
330
3BC
100
AcDbEntity
  8
CADs
 62
     7
420
 16777215
370
    13
100
AcDbVertex
100
AcDb2dVertex
 10
27.28005909073042
 20
6.288708910234517
 30
0.0
  0
SEQEND
  5
3BF
330
3BC
100
AcDbEntity
  8
CADs
 62
     7
420
 16777215
370
    13
  0
POLYLINE
  5
3C0
330
1F
100
AcDbEntity
  8
CADs
 62
     7
420
 16777215
370
    13
100
AcDb2dPolyline
 66
     1
 10
0.0
 20
0.0
 30
0.0
  0
VERTEX
  5
3C1
330
3C0
100
AcDbEntity
  8
CADs
 62
     7
420
 16777215
370
    13
100
AcDbVertex
100
AcDb2dVertex
 10
26.70360747437874
 20
6.288708910234517
 30
0.0
  0
VERTEX
  5
3C2
330
3C0
100
AcDbEntity
  8
CADs
 62
     7
420
 16777215
370
    13
100
AcDbVertex
100
AcDb2dVertex
 10
26.62562579173348
 20
6.288708910234517
 30
0.0
  0
SEQEND
  5
3C3
330
3C0
100
AcDbEntity
  8
CADs
 62
     7
420
 16777215
370
    13
  0
POLYLINE
  5
3C4
330
1F
100
AcDbEntity
  8
CADs
 62
     7
420
 16777215
370
    13
100
AcDb2dPolyline
 66
     1
 10
0.0
 20
0.0
 30
0.0
  0
VERTEX
  5
3C5
330
3C4
100
AcDbEntity
  8
CADs
 62
     7
420
 16777215
370
    13
100
AcDbVertex
100
AcDb2dVertex
 10
26.09581045063209
 20
6.791001570287133
 30
0.0
  0
VERTEX
  5
3C6
330
3C4
100
AcDbEntity
  8
CADs
 62
     7
420
 16777215
370
    13
100
AcDbVertex
100
AcDb2dVertex
 10
26.09581045063209
 20
6.646506261628499
 30
0.0
  0
SEQEND
  5
3C7
330
3C4
100
AcDbEntity
  8
CADs
 62
     7
420
 16777215
370
    13
  0
POLYLINE
  5
3C8
330
1F
100
AcDbEntity
  8
CADs
 62
     7
420
 16777215
370
    13
100
AcDb2dPolyline
 66
     1
 10
0.0
 20
0.0
 30
0.0
  0
VERTEX
  5
3C9
330
3C8
100
AcDbEntity
  8
CADs
 62
     7
420
 16777215
370
    13
100
AcDbVertex
100
AcDb2dVertex
 10
27.36568582248305
 20
7.294823026653173
 30
0.0
  0
VERTEX
  5
3CA
330
3C8
100
AcDbEntity
  8
CADs
 62
     7
420
 16777215
370
    13
100
AcDbVertex
100
AcDb2dVertex
 10
27.02967690514194
 20
7.294823026653173
 30
0.0
  0
SEQEND
  5
3CB
330
3C8
100
AcDbEntity
  8
CADs
 62
     7
420
 16777215
370
    13
  0
POLYLINE
  5
3CC
330
1F
100
AcDbEntity
  8
CADs
 62
     7
420
 16777215
370
    13
100
AcDb2dPolyline
 66
     1
 10
0.0
 20
0.0
 30
0.0
  0
VERTEX
  5
3CD
330
3CC
100
AcDbEntity
  8
CADs
 62
     7
420
 16777215
370
    13
100
AcDbVertex
100
AcDb2dVertex
 10
27.33510485136195
 20
7.091736384374157
 30
0.0
  0
VERTEX
  5
3CE
330
3CC
100
AcDbEntity
  8
CADs
 62
     7
420
 16777215
370
    13
100
AcDbVertex
100
AcDb2dVertex
 10
27.05318648748124
 20
7.091736384374157
 30
0.0
  0
SEQEND
  5
3CF
330
3CC
100
AcDbEntity
  8
CADs
 62
     7
420
 16777215
370
    13
  0
POLYLINE
  5
3D1
330
1F
100
AcDbEntity
  8
Information
 62
     7
420
 16777215
370
    13
100
AcDb2dPolyline
 66
     1
 10
0.0
 20
0.0
 30
0.0
  0
VERTEX
  5
3D2
330
3D1
100
AcDbEntity
  8
Information
 62
     7
420
 16777215
370
    13
100
AcDbVertex
100
AcDb2dVertex
 10
33.79152086845998
 20
0.174951421183424
 30
0.0
  0
VERTEX
  5
49B
330
3D1
100
AcDbEntity
  8
0
100
AcDbVertex
100
AcDb2dVertex
 10
33.79152086845998
 20
0.174951421183424
 30
0.0
  0
SEQEND
  5
3D3
330
3D1
100
AcDbEntity
  8
Information
 62
     7
420
 16777215
370
    13
  0
MTEXT
  5
3D4
330
1F
100
AcDbEntity
  8
Information
 62
     7
420
 16777215
100
AcDbMText
 10
33.81102478338612
 20
0.2209835582309299
 30
0.0
 40
0.0594516441027323
 41
0.0
 46
0.0
 71
     7
 72
     1
  1
\fGotham Light|b0|i0|c0|p34;\W1;991 Calle Amanacer, San Clemente, CA. 92673
 11
6.123233995736766E-17
 21
1.0
 31
0.0
 73
     1
 44
1.0
  0
MTEXT
  5
3D5
330
1F
100
AcDbEntity
  8
Information
 62
     7
420
 16777215
100
AcDbMText
 10
33.93156243529585
 20
0.2209835582309299
 30
0.0
 40
0.0594516441027323
 41
0.0
 46
0.0
 71
     7
 72
     1
  1
\fGotham Light|b0|i0|c0|p34;\W1;800 582-7777 949 492-7777  FAX 949 361-5579
 11
6.123233995736766E-17
 21
1.0
 31
0.0
 73
     1
 44
1.0
  0
MTEXT
  5
3D6
330
1F
100
AcDbEntity
  8
Information
 62
     7
420
 16777215
100
AcDbMText
 10
34.03159227470557
 20
0.2209835582309299
 30
0.0
 40
0.0594516441027323
 41
0.0
 46
0.0
 71
     7
 72
     1
  1
\fGotham Light|b0|i0|c0|p34;\W1;www.sonance.com
 11
6.123233995736766E-17
 21
1.0
 31
0.0
 73
     1
 44
1.0
  0
POLYLINE
  5
3D7
330
1F
100
AcDbEntity
  8
Information
 62
     7
420
 16777215
370
    25
100
AcDb2dPolyline
 66
     1
 10
0.0
 20
0.0
 30
0.0
  0
VERTEX
  5
3D8
330
3D7
100
AcDbEntity
  8
Information
 62
     7
420
 16777215
370
    25
100
AcDbVertex
100
AcDb2dVertex
 10
32.42811590000181
 20
0.1495774568121154
 30
0.0
  0
VERTEX
  5
3D9
330
3D7
100
AcDbEntity
  8
Information
 62
     7
420
 16777215
370
    25
100
AcDbVertex
100
AcDb2dVertex
 10
17.46179714692069
 20
0.1495774568121154
 30
0.0
  0
VERTEX
  5
3DA
330
3D7
100
AcDbEntity
  8
Information
 62
     7
420
 16777215
370
    25
100
AcDbVertex
100
AcDb2dVertex
 10
17.46179714692069
 20
10.8430094256377
 30
0.0
  0
VERTEX
  5
3DB
330
3D7
100
AcDbEntity
  8
Information
 62
     7
420
 16777215
370
    25
100
AcDbVertex
100
AcDb2dVertex
 10
32.42811590000181
 20
10.8430094256377
 30
0.0
  0
VERTEX
  5
3DC
330
3D7
100
AcDbEntity
  8
Information
 62
     7
420
 16777215
370
    25
100
AcDbVertex
100
AcDb2dVertex
 10
32.42811590000181
 20
0.1495774568121154
 30
0.0
  0
SEQEND
  5
3DD
330
3D7
100
AcDbEntity
  8
Information
 62
     7
420
 16777215
370
    25
  0
INSERT
  5
3DF
330
1F
100
AcDbEntity
  8
Information
100
AcDbBlockReference
  2
block 2
 10
0.0
 20
0.0
 30
0.0
  0
MTEXT
  5
430
330
1F
100
AcDbEntity
  8
Information
 62
     7
420
 16777215
100
AcDbMText
 10
33.72254096137153
 20
5.144002278645833
 30
0.0
 40
0.118
 41
0.0
 46
0.0
 71
     7
 72
     1
  1
\fGotham|b1|i0|c0|p34;\W1;AT.STAKE.AL.18
 11
6.123233995736766E-17
 21
1.0
 31
0.0
 73
     1
 44
1.0
  0
MTEXT
  5
431
330
1F
100
AcDbEntity
  8
Information
 62
     7
420
 16777215
100
AcDbMText
 10
33.97432454427083
 20
5.317369249131944
 30
0.0
 40
0.0885
 41
0.0
 46
0.0
 71
     7
 72
     1
  1
\fGotham Book|b0|i0|c0|p34;\W1;Stake Extrusion
 11
6.123233995736766E-17
 21
1.0
 31
0.0
 73
     1
 44
1.0
  0
MTEXT
  5
432
330
1F
100
AcDbEntity
  8
Information
 62
     7
420
 16777215
100
AcDbMText
 10
33.80778333875868
 20
3.399183485243055
 30
0.0
 40
0.0885
 41
0.0
 46
0.0
 71
     7
 72
     1
  1
\fGotham Book|b0|i0|c0|p34;\W1;Drawn By:     D.Mei
 11
6.123233995736766E-17
 21
1.0
 31
0.0
 73
     1
 44
1.0
  0
MTEXT
  5
433
330
1F
100
AcDbEntity
  8
Information
 62
     7
420
 16777215
100
AcDbMText
 10
33.59996710883247
 20
3.399183485243055
 30
0.0
 40
0.0885
 41
0.0
 46
0.0
 71
     7
 72
     1
  1
\fGotham Book|b0|i0|c0|p34;\W1;Revised By:   D.Mei
 11
6.123233995736766E-17
 21
1.0
 31
0.0
 73
     1
 44
1.0
  0
MTEXT
  5
434
330
1F
100
AcDbEntity
  8
Information
 62
     7
420
 16777215
100
AcDbMText
 10
34.02991570366753
 20
3.399183485243055
 30
0.0
 40
0.0885
 41
0.0
 46
0.0
 71
     7
 72
     1
  1
\fGotham Book|b0|i0|c0|p34;\W1;Date:             04-01-2015
 11
6.123233995736766E-17
 21
1.0
 31
0.0
 73
     1
 44
1.0
  0
MTEXT
  5
435
330
1F
100
AcDbEntity
  8
Information
 62
     7
420
 16777215
100
AcDbMText
 10
33.68712361653645
 20
9.368177625868055
 30
0.0
 40
0.0885
 41
0.0
 46
0.0
 71
     7
 72
     1
  1
\fGotham Book|b0|i0|c0|p34;\W1;DWR #:   150401-M08
 11
6.123233995736766E-17
 21
1.0
 31
0.0
 73
     1
 44
1.0
  0
MTEXT
  5
436
330
1F
100
AcDbEntity
  8
Information
 62
     7
420
 16777215
100
AcDbMText
 10
33.68711853027344
 20
2.430921766493055
 30
0.0
 40
0.0885
 41
0.0
 46
0.0
 71
     7
 72
     1
  1
\fGotham Book|b0|i0|c0|p34;\W1;Scale:   
 11
6.123233995736766E-17
 21
1.0
 31
0.0
 73
     1
 44
1.0
  0
MTEXT
  5
437
330
1F
100
AcDbEntity
  8
Information
 62
     7
420
 16777215
100
AcDbMText
 10
34.0021260579427
 20
2.430921766493055
 30
0.0
 40
0.0885
 41
0.0
 46
0.0
 71
     7
 72
     1
  1
\fGotham Book|b0|i0|c0|p34;\W1;Sheet 1 of 1
 11
6.123233995736766E-17
 21
1.0
 31
0.0
 73
     1
 44
1.0
  0
MTEXT
  5
438
330
1F
100
AcDbEntity
  8
Information
 62
     7
420
 16777215
100
AcDbMText
 10
33.97431776258681
 20
9.70229763454861
 30
0.0
 40
0.0885
 41
0.0
 46
0.0
 71
     7
 72
     1
  1
\fGotham Book|b0|i0|c0|p34;\W1;Revision: B
 11
6.123233995736766E-17
 21
1.0
 31
0.0
 73
     1
 44
1.0
  0
MTEXT
  5
439
330
1F
100
AcDbEntity
  8
Information
 62
     7
420
 16777215
100
AcDbMText
 10
33.97333272298177
 20
6.703219943576388
 30
0.0
 40
0.0885
 41
0.0
 46
0.0
 71
     7
 72
     1
  1
\fGotham|b1|i0|c0|p34;\W1;DRAWING NOT TO BE USED FOR CNC
 11
6.123233995736766E-17
 21
1.0
 31
0.0
 73
     1
 44
1.0
  0
MTEXT
  5
43A
330
1F
100
AcDbEntity
  8
Information
 62
     7
420
 16777215
100
AcDbMText
 10
33.68712700737847
 20
7.079087999131944
 30
0.0
 40
0.0885
 41
0.0
 46
0.0
 71
     7
 72
     1
  1
\fGotham|b1|i0|c0|p34;\W1;DO NOT SCALE DRAWING
 11
6.123233995736766E-17
 21
1.0
 31
0.0
 73
     1
 44
1.0
  0
POLYLINE
  5
43B
330
1F
100
AcDbEntity
  8
Information
 62
     7
420
 16777215
370
    25
100
AcDb2dPolyline
 66
     1
 10
0.0
 20
0.0
 30
0.0
  0
VERTEX
  5
43C
330
43B
100
AcDbEntity
  8
Information
 62
     7
420
 16777215
370
    25
100
AcDbVertex
100
AcDb2dVertex
 10
33.27131764870779
 20
6.574122385642491
 30
0.0
  0
VERTEX
  5
43D
330
43B
100
AcDbEntity
  8
Information
 62
     7
420
 16777215
370
    25
100
AcDbVertex
100
AcDb2dVertex
 10
33.27131764870779
 20
0.1495774568121154
 30
0.0
  0
VERTEX
  5
43E
330
43B
100
AcDbEntity
  8
Information
 62
     7
420
 16777215
370
    25
100
AcDbVertex
100
AcDb2dVertex
 10
32.53092349841679
 20
0.1495774568121154
 30
0.0
  0
VERTEX
  5
43F
330
43B
100
AcDbEntity
  8
Information
 62
     7
420
 16777215
370
    25
100
AcDbVertex
100
AcDb2dVertex
 10
32.53092349841679
 20
6.574122385642491
 30
0.0
  0
VERTEX
  5
440
330
43B
100
AcDbEntity
  8
Information
 62
     7
420
 16777215
370
    25
100
AcDbVertex
100
AcDb2dVertex
 10
33.27131764870779
 20
6.574122385642491
 30
0.0
  0
SEQEND
  5
441
330
43B
100
AcDbEntity
  8
Information
 62
     7
420
 16777215
370
    25
  0
POLYLINE
  5
442
330
1F
100
AcDbEntity
  8
Information
 62
     7
420
 16777215
370
    25
100
AcDb2dPolyline
 66
     1
 10
0.0
 20
0.0
 30
0.0
  0
VERTEX
  5
443
330
442
100
AcDbEntity
  8
Information
 62
     7
420
 16777215
370
    25
100
AcDbVertex
100
AcDb2dVertex
 10
32.72064501979346
 20
0.1495774568121154
 30
0.0
  0
VERTEX
  5
444
330
442
100
AcDbEntity
  8
Information
 62
     7
420
 16777215
370
    25
100
AcDbVertex
100
AcDb2dVertex
 10
32.72064501979346
 20
6.565059581130501
 30
0.0
  0
SEQEND
  5
445
330
442
100
AcDbEntity
  8
Information
 62
     7
420
 16777215
370
    25
  0
POLYLINE
  5
446
330
1F
100
AcDbEntity
  8
Information
 62
     7
420
 16777215
370
    25
100
AcDb2dPolyline
 66
     1
 10
0.0
 20
0.0
 30
0.0
  0
VERTEX
  5
447
330
446
100
AcDbEntity
  8
Information
 62
     7
420
 16777215
370
    25
100
AcDbVertex
100
AcDb2dVertex
 10
33.09220390412138
 20
0.1495774568121154
 30
0.0
  0
VERTEX
  5
448
330
446
100
AcDbEntity
  8
Information
 62
     7
420
 16777215
370
    25
100
AcDbVertex
100
AcDb2dVertex
 10
33.09220390412138
 20
6.565059581130501
 30
0.0
  0
SEQEND
  5
449
330
446
100
AcDbEntity
  8
Information
 62
     7
420
 16777215
370
    25
  0
POLYLINE
  5
44A
330
1F
100
AcDbEntity
  8
Information
 62
     7
420
 16777215
370
    25
100
AcDb2dPolyline
 66
     1
 10
0.0
 20
0.0
 30
0.0
  0
VERTEX
  5
44B
330
44A
100
AcDbEntity
  8
Information
 62
     7
420
 16777215
370
    25
100
AcDbVertex
100
AcDb2dVertex
 10
32.7206450298886
 20
0.6065701563445347
 30
0.0
  0
VERTEX
  5
44C
330
44A
100
AcDbEntity
  8
Information
 62
     7
420
 16777215
370
    25
100
AcDbVertex
100
AcDb2dVertex
 10
33.26651548958041
 20
0.6065701563445347
 30
0.0
  0
SEQEND
  5
44D
330
44A
100
AcDbEntity
  8
Information
 62
     7
420
 16777215
370
    25
  0
POLYLINE
  5
44E
330
1F
100
AcDbEntity
  8
Information
 62
     7
420
 16777215
370
    25
100
AcDb2dPolyline
 66
     1
 10
0.0
 20
0.0
 30
0.0
  0
VERTEX
  5
44F
330
44E
100
AcDbEntity
  8
Information
 62
     7
420
 16777215
370
    25
100
AcDbVertex
100
AcDb2dVertex
 10
32.72196384478821
 20
1.051384828354407
 30
0.0
  0
VERTEX
  5
450
330
44E
100
AcDbEntity
  8
Information
 62
     7
420
 16777215
370
    25
100
AcDbVertex
100
AcDb2dVertex
 10
33.26651548958041
 20
1.051384828354407
 30
0.0
  0
SEQEND
  5
451
330
44E
100
AcDbEntity
  8
Information
 62
     7
420
 16777215
370
    25
  0
POLYLINE
  5
452
330
1F
100
AcDbEntity
  8
Information
 62
     7
420
 16777215
370
    25
100
AcDb2dPolyline
 66
     1
 10
0.0
 20
0.0
 30
0.0
  0
VERTEX
  5
453
330
452
100
AcDbEntity
  8
Information
 62
     7
420
 16777215
370
    25
100
AcDbVertex
100
AcDb2dVertex
 10
32.72050661603334
 20
4.841075465357108
 30
0.0
  0
VERTEX
  5
454
330
452
100
AcDbEntity
  8
Information
 62
     7
420
 16777215
370
    25
100
AcDbVertex
100
AcDb2dVertex
 10
33.27110267792083
 20
4.841075465357108
 30
0.0
  0
SEQEND
  5
455
330
452
100
AcDbEntity
  8
Information
 62
     7
420
 16777215
370
    25
  0
POLYLINE
  5
456
330
1F
100
AcDbEntity
  8
Information
 62
     7
420
 16777215
370
    25
100
AcDb2dPolyline
 66
     1
 10
0.0
 20
0.0
 30
0.0
  0
VERTEX
  5
457
330
456
100
AcDbEntity
  8
Information
 62
     7
420
 16777215
370
    25
100
AcDbVertex
100
AcDb2dVertex
 10
32.72050661603334
 20
5.662174728254816
 30
0.0
  0
VERTEX
  5
458
330
456
100
AcDbEntity
  8
Information
 62
     7
420
 16777215
370
    25
100
AcDbVertex
100
AcDb2dVertex
 10
33.27110267792083
 20
5.662174728254816
 30
0.0
  0
SEQEND
  5
459
330
456
100
AcDbEntity
  8
Information
 62
     7
420
 16777215
370
    25
  0
MTEXT
  5
45A
330
1F
100
AcDbEntity
  8
Information
 62
     7
420
 16777215
100
AcDbMText
 10
32.67630683051215
 20
3.544908311631944
 30
0.0
 40
0.0885
 41
0.0
 46
0.0
 71
     7
 72
     1
  1
\fGotham|b1|i0|c0|p34;\W1;Revisions
 11
6.123233995736766E-17
 21
1.0
 31
0.0
 73
     1
 44
1.0
  0
MTEXT
  5
45B
330
1F
100
AcDbEntity
  8
Information
 62
     7
420
 16777215
100
AcDbMText
 10
32.8597920735677
 20
0.2329779730902778
 30
0.0
 40
0.0885
 41
0.0
 46
0.0
 71
     7
 72
     1
  1
\fGotham Medium|b0|i0|c0|p34;\W1;ECO
 11
6.123233995736766E-17
 21
1.0
 31
0.0
 73
     1
 44
1.0
  0
MTEXT
  5
45C
330
1F
100
AcDbEntity
  8
Information
 62
     7
420
 16777215
100
AcDbMText
 10
32.85520595974392
 20
0.7008599175347222
 30
0.0
 40
0.0885
 41
0.0
 46
0.0
 71
     7
 72
     1
  1
\fGotham Medium|b0|i0|c0|p34;\W1;Rev.
 11
6.123233995736766E-17
 21
1.0
 31
0.0
 73
     1
 44
1.0
  0
MTEXT
  5
45D
330
1F
100
AcDbEntity
  8
Information
 62
     7
420
 16777215
100
AcDbMText
 10
33.05245293511285
 20
0.7788492838541666
 30
0.0
 40
0.0885
 41
0.0
 46
0.0
 71
     7
 72
     1
  1
\fGotham Book|b0|i0|c0|p34;\W1;A^IRelease for Production
 11
6.123233995736766E-17
 21
1.0
 31
0.0
 73
     1
 44
1.0
  0
MTEXT
  5
45E
330
1F
100
AcDbEntity
  8
Information
 62
     7
420
 16777215
100
AcDbMText
 10
33.22744750976562
 20
0.7788492838541666
 30
0.0
 40
0.0885
 41
0.0
 46
0.0
 71
     7
 72
     1
  1
\fGotham Book|b0|i0|c0|p34;\W1;B^I3 to 2 Conduit Hole
 11
6.123233995736766E-17
 21
1.0
 31
0.0
 73
     1
 44
1.0
  0
MTEXT
  5
45F
330
1F
100
AcDbEntity
  8
Information
 62
     7
420
 16777215
100
AcDbMText
 10
33.05704074435764
 20
4.905232747395833
 30
0.0
 40
0.0885
 41
0.0
 46
0.0
 71
     7
 72
     1
  1
\fGotham Book|b0|i0|c0|p34;\W1;04-01-2015
 11
6.123233995736766E-17
 21
1.0
 31
0.0
 73
     1
 44
1.0
  0
MTEXT
  5
460
330
1F
100
AcDbEntity
  8
Information
 62
     7
420
 16777215
100
AcDbMText
 10
33.23203531901041
 20
4.905232747395833
 30
0.0
 40
0.0885
 41
0.0
 46
0.0
 71
     7
 72
     1
  1
\fGotham Book|b0|i0|c0|p34;\W1;08-11-2015
 11
6.123233995736766E-17
 21
1.0
 31
0.0
 73
     1
 44
1.0
  0
MTEXT
  5
461
330
1F
100
AcDbEntity
  8
Information
 62
     7
420
 16777215
100
AcDbMText
 10
32.8643798828125
 20
5.105970594618055
 30
0.0
 40
0.0885
 41
0.0
 46
0.0
 71
     7
 72
     1
  1
\fGotham Medium|b0|i0|c0|p34;\W1;Date
 11
6.123233995736766E-17
 21
1.0
 31
0.0
 73
     1
 44
1.0
  0
MTEXT
  5
462
330
1F
100
AcDbEntity
  8
Information
 62
     7
420
 16777215
100
AcDbMText
 10
32.85979376898872
 20
5.775132921006944
 30
0.0
 40
0.0885
 41
0.0
 46
0.0
 71
     7
 72
     1
  1
\fGotham Medium|b0|i0|c0|p34;\W1;Approved
 11
6.123233995736766E-17
 21
1.0
 31
0.0
 73
     1
 44
1.0
  0
MTEXT
  5
463
330
1F
100
AcDbEntity
  8
Information
 62
     7
420
 16777215
100
AcDbMText
 10
32.85979376898872
 20
1.278849283854167
 30
0.0
 40
0.0885
 41
0.0
 46
0.0
 71
     7
 72
     1
  1
\fGotham Medium|b0|i0|c0|p34;\W1;Description
 11
6.123233995736766E-17
 21
1.0
 31
0.0
 73
     1
 44
1.0
  0
POLYLINE
  5
464
330
1F
100
AcDbEntity
  8
Information
 62
     7
420
 16777215
370
    25
100
AcDb2dPolyline
 66
     1
 10
0.0
 20
0.0
 30
0.0
  0
VERTEX
  5
465
330
464
100
AcDbEntity
  8
Information
 62
     7
420
 16777215
370
    25
100
AcDbVertex
100
AcDb2dVertex
 10
32.91789232875764
 20
0.1495774568121154
 30
0.0
  0
VERTEX
  5
466
330
464
100
AcDbEntity
  8
Information
 62
     7
420
 16777215
370
    25
100
AcDbVertex
100
AcDb2dVertex
 10
32.91789232875764
 20
6.565059581130501
 30
0.0
  0
SEQEND
  5
467
330
464
100
AcDbEntity
  8
Information
 62
     7
420
 16777215
370
    25
  0
POLYLINE
  5
468
330
1F
100
AcDbEntity
  8
Information
 62
     7
420
 16777215
370
    25
100
AcDb2dPolyline
 66
     1
 10
0.0
 20
0.0
 30
0.0
  0
VERTEX
  5
469
330
468
100
AcDbEntity
  8
Information
 62
     7
420
 16777215
370
    25
100
AcDbVertex
100
AcDb2dVertex
 10
33.28324254356971
 20
10.85166847708798
 30
0.0
  0
VERTEX
  5
46A
330
468
100
AcDbEntity
  8
Information
 62
     7
420
 16777215
370
    25
100
AcDbVertex
100
AcDb2dVertex
 10
33.28324254356971
 20
6.650661384023755
 30
0.0
  0
VERTEX
  5
46B
330
468
100
AcDbEntity
  8
Information
 62
     7
420
 16777215
370
    25
100
AcDbVertex
100
AcDb2dVertex
 10
32.53382335137194
 20
6.650661384023755
 30
0.0
  0
VERTEX
  5
46C
330
468
100
AcDbEntity
  8
Information
 62
     7
420
 16777215
370
    25
100
AcDbVertex
100
AcDb2dVertex
 10
32.53382335137194
 20
10.85166847708798
 30
0.0
  0
VERTEX
  5
46D
330
468
100
AcDbEntity
  8
Information
 62
     7
420
 16777215
370
    25
100
AcDbVertex
100
AcDb2dVertex
 10
33.28324254356971
 20
10.85166847708798
 30
0.0
  0
SEQEND
  5
46E
330
468
100
AcDbEntity
  8
Information
 62
     7
420
 16777215
370
    25
  0
POLYLINE
  5
46F
330
1F
100
AcDbEntity
  8
Information
 62
     7
420
 16777215
370
    25
100
AcDb2dPolyline
 66
     1
 10
0.0
 20
0.0
 30
0.0
  0
VERTEX
  5
470
330
46F
100
AcDbEntity
  8
Information
 62
     7
420
 16777215
370
    25
100
AcDbVertex
100
AcDb2dVertex
 10
32.81737161176554
 20
6.650380620944563
 30
0.0
  0
VERTEX
  5
471
330
46F
100
AcDbEntity
  8
Information
 62
     7
420
 16777215
370
    25
100
AcDbVertex
100
AcDb2dVertex
 10
32.81737161176554
 20
10.84546155013888
 30
0.0
  0
SEQEND
  5
472
330
46F
100
AcDbEntity
  8
Information
 62
     7
420
 16777215
370
    25
  0
POLYLINE
  5
473
330
1F
100
AcDbEntity
  8
Information
 62
     7
420
 16777215
370
    25
100
AcDb2dPolyline
 66
     1
 10
0.0
 20
0.0
 30
0.0
  0
VERTEX
  5
474
330
473
100
AcDbEntity
  8
Information
 62
     7
420
 16777215
370
    25
100
AcDbVertex
100
AcDb2dVertex
 10
33.04993049609347
 20
6.650380620944563
 30
0.0
  0
VERTEX
  5
475
330
473
100
AcDbEntity
  8
Information
 62
     7
420
 16777215
370
    25
100
AcDbVertex
100
AcDb2dVertex
 10
33.04993049609347
 20
10.84546155013888
 30
0.0
  0
SEQEND
  5
476
330
473
100
AcDbEntity
  8
Information
 62
     7
420
 16777215
370
    25
  0
POLYLINE
  5
477
330
1F
100
AcDbEntity
  8
Information
 62
     7
420
 16777215
370
    25
100
AcDb2dPolyline
 66
     1
 10
0.0
 20
0.0
 30
0.0
  0
VERTEX
  5
478
330
477
100
AcDbEntity
  8
Information
 62
     7
420
 16777215
370
    25
100
AcDbVertex
100
AcDb2dVertex
 10
32.82393649002903
 20
7.118430579417867
 30
0.0
  0
VERTEX
  5
479
330
477
100
AcDbEntity
  8
Information
 62
     7
420
 16777215
370
    25
100
AcDbVertex
100
AcDb2dVertex
 10
33.28250361742862
 20
7.118430579417867
 30
0.0
  0
SEQEND
  5
47A
330
477
100
AcDbEntity
  8
Information
 62
     7
420
 16777215
370
    25
  0
MTEXT
  5
47B
330
1F
100
AcDbEntity
  8
Information
 62
     7
420
 16777215
100
AcDbMText
 10
32.73132663302951
 20
8.52939181857639
 30
0.0
 40
0.0885
 41
0.0
 46
0.0
 71
     7
 72
     1
  1
\fGotham|b1|i0|c0|p34;\W1;NOTES
 11
6.123233995736766E-17
 21
1.0
 31
0.0
 73
     1
 44
1.0
  0
MTEXT
  5
47C
330
1F
100
AcDbEntity
  8
Information
 62
     7
420
 16777215
100
AcDbMText
 10
32.96847534179688
 20
6.8463134765625
 30
0.0
 40
0.0885
 41
0.0
 46
0.0
 71
     7
 72
     1
  1
\fGotham Book|b0|i0|c0|p34;\W1;1^IMaterial - at extrusion
 11
6.123233995736766E-17
 21
1.0
 31
0.0
 73
     1
 44
1.0
  0
MTEXT
  5
47D
330
1F
100
AcDbEntity
  8
Information
 62
     7
420
 16777215
100
AcDbMText
 10
33.21847534179688
 20
6.8463134765625
 30
0.0
 40
0.0885
 41
0.0
 46
0.0
 71
     7
 72
     1
  1
\fGotham Book|b0|i0|c0|p34;\W1;2^IFinish - TBD unless otherwise specified
 11
6.123233995736766E-17
 21
1.0
 31
0.0
 73
     1
 44
1.0
  0
POLYLINE
  5
47E
330
1F
100
AcDbEntity
  8
Information
 62
     7
420
 16777215
370
    25
100
AcDb2dPolyline
 66
     1
 10
0.0
 20
0.0
 30
0.0
  0
VERTEX
  5
47F
330
47E
100
AcDbEntity
  8
Information
 62
     7
420
 16777215
370
    25
100
AcDbVertex
100
AcDb2dVertex
 10
34.16820939290973
 20
0.1495774568121154
 30
0.0
  0
VERTEX
  5
480
330
47E
100
AcDbEntity
  8
Information
 62
     7
420
 16777215
370
    25
100
AcDbVertex
100
AcDb2dVertex
 10
33.39472566862221
 20
0.1495774568121154
 30
0.0
  0
VERTEX
  5
481
330
47E
100
AcDbEntity
  8
Information
 62
     7
420
 16777215
370
    25
100
AcDbVertex
100
AcDb2dVertex
 10
33.39472566862221
 20
10.84680360808251
 30
0.0
  0
VERTEX
  5
482
330
47E
100
AcDbEntity
  8
Information
 62
     7
420
 16777215
370
    25
100
AcDbVertex
100
AcDb2dVertex
 10
34.16820939290973
 20
10.84680360808251
 30
0.0
  0
VERTEX
  5
483
330
47E
100
AcDbEntity
  8
Information
 62
     7
420
 16777215
370
    25
100
AcDbVertex
100
AcDb2dVertex
 10
34.16820939290973
 20
0.1495774568121154
 30
0.0
  0
SEQEND
  5
484
330
47E
100
AcDbEntity
  8
Information
 62
     7
420
 16777215
370
    25
  0
POLYLINE
  5
485
330
1F
100
AcDbEntity
  8
Information
 62
     7
420
 16777215
370
    25
100
AcDb2dPolyline
 66
     1
 10
0.0
 20
0.0
 30
0.0
  0
VERTEX
  5
486
330
485
100
AcDbEntity
  8
Information
 62
     7
420
 16777215
370
    25
100
AcDbVertex
100
AcDb2dVertex
 10
33.39818992005139
 20
2.291774975098279
 30
0.0
  0
VERTEX
  5
487
330
485
100
AcDbEntity
  8
Information
 62
     7
420
 16777215
370
    25
100
AcDbVertex
100
AcDb2dVertex
 10
34.16689536650541
 20
2.291774975098279
 30
0.0
  0
SEQEND
  5
488
330
485
100
AcDbEntity
  8
Information
 62
     7
420
 16777215
370
    25
  0
POLYLINE
  5
489
330
1F
100
AcDbEntity
  8
Information
 62
     7
420
 16777215
370
    25
100
AcDb2dPolyline
 66
     1
 10
0.0
 20
0.0
 30
0.0
  0
VERTEX
  5
48A
330
489
100
AcDbEntity
  8
Information
 62
     7
420
 16777215
370
    25
100
AcDbVertex
100
AcDb2dVertex
 10
33.39263517207001
 20
3.30859249805346
 30
0.0
  0
VERTEX
  5
48B
330
489
100
AcDbEntity
  8
Information
 62
     7
420
 16777215
370
    25
100
AcDbVertex
100
AcDb2dVertex
 10
34.16134061852404
 20
3.30859249805346
 30
0.0
  0
SEQEND
  5
48C
330
489
100
AcDbEntity
  8
Information
 62
     7
420
 16777215
370
    25
  0
POLYLINE
  5
48D
330
1F
100
AcDbEntity
  8
Information
 62
     7
420
 16777215
370
    25
100
AcDb2dPolyline
 66
     1
 10
0.0
 20
0.0
 30
0.0
  0
VERTEX
  5
48E
330
48D
100
AcDbEntity
  8
Information
 62
     7
420
 16777215
370
    25
100
AcDbVertex
100
AcDb2dVertex
 10
33.3987513676968
 20
5.061713904169411
 30
0.0
  0
VERTEX
  5
48F
330
48D
100
AcDbEntity
  8
Information
 62
     7
420
 16777215
370
    25
100
AcDbVertex
100
AcDb2dVertex
 10
34.16745681415083
 20
5.061713904169411
 30
0.0
  0
SEQEND
  5
490
330
48D
100
AcDbEntity
  8
Information
 62
     7
420
 16777215
370
    25
  0
POLYLINE
  5
491
330
1F
100
AcDbEntity
  8
Information
 62
     7
420
 16777215
370
    25
100
AcDb2dPolyline
 66
     1
 10
0.0
 20
0.0
 30
0.0
  0
VERTEX
  5
492
330
491
100
AcDbEntity
  8
Information
 62
     7
420
 16777215
370
    25
100
AcDbVertex
100
AcDb2dVertex
 10
33.3987513676968
 20
6.562408571510231
 30
0.0
  0
VERTEX
  5
493
330
491
100
AcDbEntity
  8
Information
 62
     7
420
 16777215
370
    25
100
AcDbVertex
100
AcDb2dVertex
 10
34.16745681415083
 20
6.562408571510231
 30
0.0
  0
SEQEND
  5
494
330
491
100
AcDbEntity
  8
Information
 62
     7
420
 16777215
370
    25
  0
POLYLINE
  5
495
330
1F
100
AcDbEntity
  8
Information
 62
     7
420
 16777215
370
    25
100
AcDb2dPolyline
 66
     1
 10
0.0
 20
0.0
 30
0.0
  0
VERTEX
  5
496
330
495
100
AcDbEntity
  8
Information
 62
     7
420
 16777215
370
    25
100
AcDbVertex
100
AcDb2dVertex
 10
33.39263517207001
 20
9.229069864794331
 30
0.0
  0
VERTEX
  5
497
330
495
100
AcDbEntity
  8
Information
 62
     7
420
 16777215
370
    25
100
AcDbVertex
100
AcDb2dVertex
 10
34.16134061852404
 20
9.229069864794331
 30
0.0
  0
SEQEND
  5
498
330
495
100
AcDbEntity
  8
Information
 62
     7
420
 16777215
370
    25
  0
ENDSEC
  0
SECTION
  2
OBJECTS
  0
DICTIONARY
  5
C
330
0
100
AcDbDictionary
281
     1
  3
ACAD_GROUP
350
D
  3
ACAD_LAYOUT
350
1A
  3
ACAD_MATERIAL
350
3B
  3
ACAD_MLEADERSTYLE
350
49D
  3
ACAD_MLINESTYLE
350
17
  3
ACAD_PLOTSETTINGS
350
19
  3
ACAD_PLOTSTYLENAME
350
E
  3
ACAD_TABLESTYLE
350
49C
  3
ACAD_VISUALSTYLE
350
2A
  0
SUN
  5
3F
330
29
100
AcDbSun
 90
        1
290
     0
 63
     7
421
 16777215
 40
1.0
291
     1
 91
  2455826
 92
 54000000
292
     0
 70
     2
 71
   256
280
     1
  0
DICTIONARY
  5
D
102
{ACAD_REACTORS
330
C
102
}
330
C
100
AcDbDictionary
281
     1
  0
DICTIONARY
  5
1A
102
{ACAD_REACTORS
330
C
102
}
330
C
100
AcDbDictionary
281
     1
  3
Layout1
350
1E
  3
Layout2
350
26
  3
Model
350
22
  0
DICTIONARY
  5
3B
102
{ACAD_REACTORS
330
C
102
}
330
C
100
AcDbDictionary
281
     1
  3
ByBlock
350
3D
  3
ByLayer
350
3C
  3
Global
350
3E
  0
DICTIONARY
  5
49D
102
{ACAD_REACTORS
330
C
102
}
330
C
100
AcDbDictionary
281
     1
  0
DICTIONARY
  5
17
102
{ACAD_REACTORS
330
C
102
}
330
C
100
AcDbDictionary
281
     1
  3
Standard
350
18
  0
DICTIONARY
  5
19
102
{ACAD_REACTORS
330
C
102
}
330
C
100
AcDbDictionary
281
     1
  0
ACDBDICTIONARYWDFLT
  5
E
102
{ACAD_REACTORS
330
C
102
}
330
C
100
AcDbDictionary
281
     1
  3
Normal
350
F
100
AcDbDictionaryWithDefault
340
F
  0
DICTIONARY
  5
49C
102
{ACAD_REACTORS
330
C
102
}
330
C
100
AcDbDictionary
281
     1
  0
DICTIONARY
  5
2A
102
{ACAD_REACTORS
330
C
102
}
330
C
100
AcDbDictionary
281
     1
  3
2dWireframe
350
2F
  3
3D Hidden
350
31
  3
3dWireframe
350
30
  3
Basic
350
32
  3
Brighten
350
36
  3
ColorChange
350
3A
  3
Conceptual
350
34
  3
Dim
350
35
  3
Facepattern
350
39
  3
Flat
350
2B
  3
FlatWithEdges
350
2C
  3
Gouraud
350
2D
  3
GouraudWithEdges
350
2E
  3
Linepattern
350
38
  3
Realistic
350
33
  3
Thicken
350
37
  0
LAYOUT
  5
1E
102
{ACAD_REACTORS
330
1A
102
}
330
1A
100
AcDbPlotSettings
  1

  2
none_device
  4

  6

 40
0.0
 41
0.0
 42
0.0
 43
0.0
 44
0.0
 45
0.0
 46
0.0
 47
0.0
 48
0.0
 49
0.0
140
0.0
141
0.0
142
1.0
143
1.0
 70
   688
 72
     0
 73
     0
 74
     5
  7

 75
    16
 76
     0
 77
     2
 78
   300
147
1.0
148
0.0
149
0.0
100
AcDbLayout
  1
Layout1
 70
     1
 71
     1
 10
0.0
 20
0.0
 11
12.0
 21
9.0
 12
0.0
 22
0.0
 32
0.0
 14
1.000000000000000E+20
 24
1.000000000000000E+20
 34
1.000000000000000E+20
 15
-1.000000000000000E+20
 25
-1.000000000000000E+20
 35
-1.000000000000000E+20
146
0.0
 13
0.0
 23
0.0
 33
0.0
 16
1.0
 26
0.0
 36
0.0
 17
0.0
 27
1.0
 37
0.0
 76
     0
330
1B
  0
LAYOUT
  5
26
102
{ACAD_REACTORS
330
1A
102
}
330
1A
100
AcDbPlotSettings
  1

  2
none_device
  4

  6

 40
0.0
 41
0.0
 42
0.0
 43
0.0
 44
0.0
 45
0.0
 46
0.0
 47
0.0
 48
0.0
 49
0.0
140
0.0
141
0.0
142
1.0
143
1.0
 70
   688
 72
     0
 73
     0
 74
     5
  7

 75
    16
 76
     0
 77
     2
 78
   300
147
1.0
148
0.0
149
0.0
100
AcDbLayout
  1
Layout2
 70
     1
 71
     2
 10
0.0
 20
0.0
 11
0.0
 21
0.0
 12
0.0
 22
0.0
 32
0.0
 14
0.0
 24
0.0
 34
0.0
 15
0.0
 25
0.0
 35
0.0
146
0.0
 13
0.0
 23
0.0
 33
0.0
 16
1.0
 26
0.0
 36
0.0
 17
0.0
 27
1.0
 37
0.0
 76
     0
330
23
  0
LAYOUT
  5
22
102
{ACAD_REACTORS
330
1A
102
}
330
1A
100
AcDbPlotSettings
  1

  2
none_device
  4

  6

 40
0.0
 41
0.0
 42
0.0
 43
0.0
 44
0.0
 45
0.0
 46
0.0
 47
0.0
 48
0.0
 49
0.0
140
0.0
141
0.0
142
1.0
143
1.0
 70
  1712
 72
     0
 73
     0
 74
     0
  7

 75
     0
 76
     0
 77
     2
 78
   300
147
1.0
148
0.0
149
0.0
100
AcDbLayout
  1
Model
 70
     1
 71
     0
 10
0.0
 20
0.0
 11
12.0
 21
9.0
 12
0.0
 22
0.0
 32
0.0
 14
1.000000000000000E+20
 24
1.000000000000000E+20
 34
1.000000000000000E+20
 15
-1.000000000000000E+20
 25
-1.000000000000000E+20
 35
-1.000000000000000E+20
146
0.0
 13
0.0
 23
0.0
 33
0.0
 16
1.0
 26
0.0
 36
0.0
 17
0.0
 27
1.0
 37
0.0
 76
     0
330
1F
331
29
  0
MATERIAL
  5
3D
102
{ACAD_REACTORS
330
3B
102
}
330
3B
100
AcDbMaterial
  1
ByBlock
 72
     1
 94
      127
  0
MATERIAL
  5
3C
102
{ACAD_REACTORS
330
3B
102
}
330
3B
100
AcDbMaterial
  1
ByLayer
 72
     1
 94
      127
  0
MATERIAL
  5
3E
102
{ACAD_REACTORS
330
3B
102
}
330
3B
100
AcDbMaterial
  1
Global
 72
     1
 94
      127
  0
MLINESTYLE
  5
18
102
{ACAD_REACTORS
330
17
102
}
330
17
100
AcDbMlineStyle
  2
Standard
 70
     0
  3

 62
   256
 51
90.0
 52
90.0
 71
     2
 49
0.5
 62
   256
  6
BYLAYER
 49
-0.5
 62
   256
  6
BYLAYER
  0
ACDBPLACEHOLDER
  5
F
102
{ACAD_REACTORS
330
E
102
}
330
E
  0
VISUALSTYLE
  5
2F
102
{ACAD_REACTORS
330
2A
102
}
330
2A
100
AcDbVisualStyle
  2
2dWireframe
 70
     4
177
     2
291
     0
 71
     0
176
     1
 72
     2
176
     1
 73
     0
176
     1
 90
        0
176
     1
 40
-0.6
176
     1
 41
-30.0
176
     1
 62
     5
 63
     7
421
 16777215
176
     1
 74
     1
176
     1
 91
        4
176
     1
 64
     7
176
     1
 65
   257
176
     1
 75
     1
176
     1
175
     1
176
     1
 42
1.0
176
     1
 92
        0
176
     1
 66
   257
176
     1
 43
1.0
176
     1
 76
     1
176
     1
 77
     6
176
     1
 78
     2
176
     1
 67
     7
176
     1
 79
     5
176
     1
170
     0
176
     1
171
     0
176
     1
290
     0
176
     1
 93
        1
176
     1
 44
0.0
176
     1
173
     0
176
     1
  0
VISUALSTYLE
  5
31
102
{ACAD_REACTORS
330
2A
102
}
330
2A
100
AcDbVisualStyle
  2
3D Hidden
 70
     6
177
     2
291
     0
 71
     1
176
     1
 72
     2
176
     1
 73
     2
176
     1
 90
        0
176
     1
 40
-0.6
176
     1
 41
-30.0
176
     1
 62
     5
 63
     7
421
 16777215
176
     1
 74
     2
176
     1
 91
        2
176
     1
 64
     7
176
     1
 65
   257
176
     1
 75
     2
176
     1
175
     1
176
     1
 42
40.0
176
     1
 92
        0
176
     1
 66
   257
176
     1
 43
1.0
176
     1
 76
     1
176
     1
 77
     6
176
     1
 78
     2
176
     1
 67
     7
176
     1
 79
     3
176
     1
170
     0
176
     1
171
     0
176
     1
290
     0
176
     1
 93
        1
176
     1
 44
0.0
176
     1
173
     0
176
     1
  0
VISUALSTYLE
  5
30
102
{ACAD_REACTORS
330
2A
102
}
330
2A
100
AcDbVisualStyle
  2
3dWireframe
 70
     5
177
     2
291
     0
 71
     0
176
     1
 72
     2
176
     1
 73
     0
176
     1
 90
        0
176
     1
 40
-0.6
176
     1
 41
-30.0
176
     1
 62
     5
 63
     7
421
 16777215
176
     1
 74
     1
176
     1
 91
        4
176
     1
 64
     7
176
     1
 65
   257
176
     1
 75
     1
176
     1
175
     1
176
     1
 42
1.0
176
     1
 92
        0
176
     1
 66
   257
176
     1
 43
1.0
176
     1
 76
     1
176
     1
 77
     6
176
     1
 78
     2
176
     1
 67
     7
176
     1
 79
     5
176
     1
170
     0
176
     1
171
     0
176
     1
290
     0
176
     1
 93
        1
176
     1
 44
0.0
176
     1
173
     0
176
     1
  0
VISUALSTYLE
  5
32
102
{ACAD_REACTORS
330
2A
102
}
330
2A
100
AcDbVisualStyle
  2
Basic
 70
     7
177
     2
291
     1
 71
     1
176
     1
 72
     0
176
     1
 73
     1
176
     1
 90
        0
176
     1
 40
-0.6
176
     1
 41
-30.0
176
     1
 62
     5
 63
     7
421
 16777215
176
     1
 74
     0
176
     1
 91
        4
176
     1
 64
     7
176
     1
 65
   257
176
     1
 75
     1
176
     1
175
     1
176
     1
 42
1.0
176
     1
 92
        8
176
     1
 66
     7
176
     1
 43
1.0
176
     1
 76
     1
176
     1
 77
     6
176
     1
 78
     2
176
     1
 67
     7
176
     1
 79
     5
176
     1
170
     0
176
     1
171
     0
176
     1
290
     0
176
     1
 93
        1
176
     1
 44
0.0
176
     1
173
     0
176
     1
  0
VISUALSTYLE
  5
36
102
{ACAD_REACTORS
330
2A
102
}
330
2A
100
AcDbVisualStyle
  2
Brighten
 70
    12
177
     2
291
     1
 71
     2
176
     1
 72
     2
176
     1
 73
     0
176
     1
 90
        0
176
     1
 40
-0.6
176
     1
 41
-30.0
176
     1
 62
     5
 63
     7
421
 16777215
176
     1
 74
     1
176
     1
 91
        4
176
     1
 64
     7
176
     1
 65
   257
176
     1
 75
     1
176
     1
175
     1
176
     1
 42
1.0
176
     1
 92
        8
176
     1
 66
     7
176
     1
 43
1.0
176
     1
 76
     1
176
     1
 77
     6
176
     1
 78
     2
176
     1
 67
     7
176
     1
 79
     5
176
     1
170
     0
176
     1
171
     0
176
     1
290
     0
176
     1
 93
        1
176
     1
 44
50.0
176
     1
173
     0
176
     1
  0
VISUALSTYLE
  5
3A
102
{ACAD_REACTORS
330
2A
102
}
330
2A
100
AcDbVisualStyle
  2
ColorChange
 70
    16
177
     2
291
     1
 71
     2
176
     1
 72
     2
176
     1
 73
     3
176
     1
 90
        0
176
     1
 40
-0.6
176
     1
 41
-30.0
176
     1
 62
     5
 63
     8
421
  8421504
176
     1
 74
     1
176
     1
 91
        4
176
     1
 64
     7
176
     1
 65
   257
176
     1
 75
     1
176
     1
175
     1
176
     1
 42
1.0
176
     1
 92
        8
176
     1
 66
     8
424
  8421504
176
     1
 43
1.0
176
     1
 76
     1
176
     1
 77
     6
176
     1
 78
     2
176
     1
 67
     7
176
     1
 79
     5
176
     1
170
     0
176
     1
171
     0
176
     1
290
     0
176
     1
 93
        1
176
     1
 44
0.0
176
     1
173
     0
176
     1
  0
VISUALSTYLE
  5
34
102
{ACAD_REACTORS
330
2A
102
}
330
2A
100
AcDbVisualStyle
  2
Conceptual
 70
     9
177
     2
291
     0
 71
     3
176
     1
 72
     2
176
     1
 73
     0
176
     1
 90
        0
176
     1
 40
-0.6
176
     1
 41
-30.0
176
     1
 62
     5
 63
     7
421
 16777215
176
     1
 74
     2
176
     1
 91
        2
176
     1
 64
     7
176
     1
 65
   257
176
     1
 75
     1
176
     1
175
     1
176
     1
 42
40.0
176
     1
 92
        8
176
     1
 66
     7
176
     1
 43
1.0
176
     1
 76
     1
176
     1
 77
     6
176
     1
 78
     2
176
     1
 67
     7
176
     1
 79
     3
176
     1
170
     0
176
     1
171
     0
176
     1
290
     0
176
     1
 93
        1
176
     1
 44
0.0
176
     1
173
     0
176
     1
  0
VISUALSTYLE
  5
35
102
{ACAD_REACTORS
330
2A
102
}
330
2A
100
AcDbVisualStyle
  2
Dim
 70
    11
177
     2
291
     1
 71
     2
176
     1
 72
     2
176
     1
 73
     0
176
     1
 90
        0
176
     1
 40
-0.6
176
     1
 41
-30.0
176
     1
 62
     5
 63
     7
421
 16777215
176
     1
 74
     1
176
     1
 91
        4
176
     1
 64
     7
176
     1
 65
   257
176
     1
 75
     1
176
     1
175
     1
176
     1
 42
1.0
176
     1
 92
        8
176
     1
 66
     7
176
     1
 43
1.0
176
     1
 76
     1
176
     1
 77
     6
176
     1
 78
     2
176
     1
 67
     7
176
     1
 79
     5
176
     1
170
     0
176
     1
171
     0
176
     1
290
     0
176
     1
 93
        1
176
     1
 44
-50.0
176
     1
173
     0
176
     1
  0
VISUALSTYLE
  5
39
102
{ACAD_REACTORS
330
2A
102
}
330
2A
100
AcDbVisualStyle
  2
Facepattern
 70
    15
177
     2
291
     1
 71
     2
176
     1
 72
     2
176
     1
 73
     0
176
     1
 90
        0
176
     1
 40
-0.6
176
     1
 41
-30.0
176
     1
 62
     5
 63
     7
421
 16777215
176
     1
 74
     1
176
     1
 91
        4
176
     1
 64
     7
176
     1
 65
   257
176
     1
 75
     1
176
     1
175
     1
176
     1
 42
1.0
176
     1
 92
        8
176
     1
 66
     7
176
     1
 43
1.0
176
     1
 76
     1
176
     1
 77
     6
176
     1
 78
     2
176
     1
 67
     7
176
     1
 79
     5
176
     1
170
     0
176
     1
171
     0
176
     1
290
     0
176
     1
 93
        1
176
     1
 44
0.0
176
     1
173
     0
176
     1
  0
VISUALSTYLE
  5
2B
102
{ACAD_REACTORS
330
2A
102
}
330
2A
100
AcDbVisualStyle
  2
Flat
 70
     0
177
     2
291
     1
 71
     2
176
     1
 72
     1
176
     1
 73
     1
176
     1
 90
        2
176
     1
 40
-0.6
176
     1
 41
30.0
176
     1
 62
     5
 63
     7
421
 16777215
176
     1
 74
     0
176
     1
 91
        4
176
     1
 64
     7
176
     1
 65
   257
176
     1
 75
     1
176
     1
175
     1
176
     1
 42
1.0
176
     1
 92
        8
176
     1
 66
     7
176
     1
 43
1.0
176
     1
 76
     1
176
     1
 77
     6
176
     1
 78
     2
176
     1
 67
     7
176
     1
 79
     5
176
     1
170
     0
176
     1
171
     0
176
     1
290
     0
176
     1
 93
       13
176
     1
 44
0.0
176
     1
173
     0
176
     1
  0
VISUALSTYLE
  5
2C
102
{ACAD_REACTORS
330
2A
102
}
330
2A
100
AcDbVisualStyle
  2
FlatWithEdges
 70
     1
177
     2
291
     1
 71
     2
176
     1
 72
     1
176
     1
 73
     1
176
     1
 90
        2
176
     1
 40
-0.6
176
     1
 41
30.0
176
     1
 62
     5
 63
     7
421
 16777215
176
     1
 74
     1
176
     1
 91
        4
176
     1
 64
     7
176
     1
 65
   257
176
     1
 75
     1
176
     1
175
     1
176
     1
 42
1.0
176
     1
 92
        0
176
     1
 66
   257
176
     1
 43
1.0
176
     1
 76
     1
176
     1
 77
     6
176
     1
 78
     2
176
     1
 67
     7
176
     1
 79
     5
176
     1
170
     0
176
     1
171
     0
176
     1
290
     0
176
     1
 93
       13
176
     1
 44
0.0
176
     1
173
     0
176
     1
  0
VISUALSTYLE
  5
2D
102
{ACAD_REACTORS
330
2A
102
}
330
2A
100
AcDbVisualStyle
  2
Gouraud
 70
     2
177
     2
291
     1
 71
     2
176
     1
 72
     2
176
     1
 73
     1
176
     1
 90
        2
176
     1
 40
-0.6
176
     1
 41
30.0
176
     1
 62
     5
 63
     7
421
 16777215
176
     1
 74
     0
176
     1
 91
        4
176
     1
 64
     7
176
     1
 65
   257
176
     1
 75
     1
176
     1
175
     1
176
     1
 42
1.0
176
     1
 92
        0
176
     1
 66
     7
176
     1
 43
1.0
176
     1
 76
     1
176
     1
 77
     6
176
     1
 78
     2
176
     1
 67
     7
176
     1
 79
     5
176
     1
170
     0
176
     1
171
     0
176
     1
290
     0
176
     1
 93
       13
176
     1
 44
0.0
176
     1
173
     0
176
     1
  0
VISUALSTYLE
  5
2E
102
{ACAD_REACTORS
330
2A
102
}
330
2A
100
AcDbVisualStyle
  2
GouraudWithEdges
 70
     3
177
     2
291
     1
 71
     2
176
     1
 72
     2
176
     1
 73
     1
176
     1
 90
        2
176
     1
 40
-0.6
176
     1
 41
30.0
176
     1
 62
     5
 63
     7
421
 16777215
176
     1
 74
     1
176
     1
 91
        4
176
     1
 64
     7
176
     1
 65
   257
176
     1
 75
     1
176
     1
175
     1
176
     1
 42
1.0
176
     1
 92
        0
176
     1
 66
   257
176
     1
 43
1.0
176
     1
 76
     1
176
     1
 77
     6
176
     1
 78
     2
176
     1
 67
     7
176
     1
 79
     5
176
     1
170
     0
176
     1
171
     0
176
     1
290
     0
176
     1
 93
       13
176
     1
 44
0.0
176
     1
173
     0
176
     1
  0
VISUALSTYLE
  5
38
102
{ACAD_REACTORS
330
2A
102
}
330
2A
100
AcDbVisualStyle
  2
Linepattern
 70
    14
177
     2
291
     1
 71
     2
176
     1
 72
     2
176
     1
 73
     0
176
     1
 90
        0
176
     1
 40
-0.6
176
     1
 41
-30.0
176
     1
 62
     5
 63
     7
421
 16777215
176
     1
 74
     1
176
     1
 91
        4
176
     1
 64
     7
176
     1
 65
   257
176
     1
 75
     7
176
     1
175
     7
176
     1
 42
1.0
176
     1
 92
        8
176
     1
 66
     7
176
     1
 43
1.0
176
     1
 76
     1
176
     1
 77
     6
176
     1
 78
     2
176
     1
 67
     7
176
     1
 79
     5
176
     1
170
     0
176
     1
171
     0
176
     1
290
     0
176
     1
 93
        1
176
     1
 44
0.0
176
     1
173
     0
176
     1
  0
VISUALSTYLE
  5
33
102
{ACAD_REACTORS
330
2A
102
}
330
2A
100
AcDbVisualStyle
  2
Realistic
 70
     8
177
     2
291
     0
 71
     2
176
     1
 72
     2
176
     1
 73
     0
176
     1
 90
        0
176
     1
 40
-0.6
176
     1
 41
-30.0
176
     1
 62
     5
 63
     7
421
 16777215
176
     1
 74
     1
176
     1
 91
        0
176
     1
 64
     7
176
     1
 65
   257
176
     1
 75
     1
176
     1
175
     1
176
     1
 42
1.0
176
     1
 92
        8
176
     1
 66
     8
424
  7895160
176
     1
 43
1.0
176
     1
 76
     1
176
     1
 77
     6
176
     1
 78
     2
176
     1
 67
     7
176
     1
 79
     5
176
     1
170
     0
176
     1
171
     0
176
     1
290
     0
176
     1
 93
       13
176
     1
 44
0.0
176
     1
173
     0
176
     1
  0
VISUALSTYLE
  5
37
102
{ACAD_REACTORS
330
2A
102
}
330
2A
100
AcDbVisualStyle
  2
Thicken
 70
    13
177
     2
291
     1
 71
     2
176
     1
 72
     2
176
     1
 73
     0
176
     1
 90
        0
176
     1
 40
-0.6
176
     1
 41
-30.0
176
     1
 62
     5
 63
     7
421
 16777215
176
     1
 74
     1
176
     1
 91
        4
176
     1
 64
     7
176
     1
 65
   257
176
     1
 75
     1
176
     1
175
     1
176
     1
 42
1.0
176
     1
 92
       12
176
     1
 66
     7
176
     1
 43
1.0
176
     1
 76
     1
176
     1
 77
     6
176
     1
 78
     2
176
     1
 67
     7
176
     1
 79
     5
176
     1
170
     0
176
     1
171
     0
176
     1
290
     0
176
     1
 93
        1
176
     1
 44
0.0
176
     1
173
     0
176
     1
  0
ENDSEC
  0
EOF
