999
DXF file: C:\Users\sesa63760\Dev\_Creo\CAD\MCADID0003082_3D-CAD\drw0001_1.dxf
999
Pro/ENGINEER 2019471 by Parametric Technology Corporation
  0
SECTION
  2
HEADER
  9
$ACADVER
  1
AC1024
  9
$DWGCODEPAGE
  3
ANSI_1252
  9
$EXTMAX
 10
151.583720054
 20
214.3826897907
 30
0.0
  9
$EXTMIN
 10
0.0
 20
0.0
 30
0.0
  9
$LIMMIN
 10
0.0
 20
0.0
  9
$LIMMAX
 10
151.583720054
 20
214.3826897907
  9
$VIEWCTR
 10
75.791860027
 20
107.1913448954
  9
$VIEWSIZE
 40
214.3826897907
  9
$CLAYER
  8
0
  9
$LTSCALE
 40
13.9745753345
  9
$CELTYPE
  6
BYLAYER
  9
$DIMSCALE
 40
1.0
  9
$DIMASZ
 40
1.8045680959
  9
$DIMEXO
 40
1.0
  9
$DIMDLI
 40
9.6551611402
  9
$DIMEXE
 40
1.0
  9
$DIMCEN
 40
2.2867486911
  9
$DIMLFAC
 40
1.0
  9
$DIMBLK
  1
_FILLED
  9
$DIMALT
 70
0
  9
$DIMALTF
 40
0.0393700787
  9
$DIMTXT
 40
2.5263953342
  9
$DIMTOL
 70
1
  9
$DIMLIM
 70
0
  9
$DIMTFAC
 40
1.0
  9
$DIMTP
 40
0.01
  9
$DIMTM
 40
0.01
  9
$DIMGAP
 40
0.625
  9
$DIMDSEP
 70
46
  9
$AUNITS
 70
0
  9
$PDMODE
 70
3
  9
$PDSIZE
 40
0.3125
  9
$HANDSEED
  5
2A5
  9
$TILEMODE
 70
1
  9
$MEASUREMENT
 70
1
  9
$INSUNITS
 70
4
  0
ENDSEC
  0
SECTION
  2
CLASSES
  0
CLASS
  1
ACDBDICTIONARYWDFLT
  2
AcDbDictionaryWithDefault
  3
AutoCAD 2000
 90
0
 91
1
280
0
281
0
  0
CLASS
  1
ACDBPLACEHOLDER
  2
AcDbPlaceHolder
  3
AutoCAD 2000
 90
0
 91
1
280
0
281
0
  0
CLASS
  1
LAYOUT
  2
AcDbLayout
  3
AutoCAD 2000
 90
0
 91
0
280
0
281
0
  0
ENDSEC
  0
SECTION
  2
TABLES
  0
TABLE
  2
VPORT
  5
8
100
AcDbSymbolTable
 70
2
  0
VPORT
  5
1F4
100
AcDbSymbolTableRecord
100
AcDbViewportTableRecord
  2
*ACTIVE
 70
0
 10
0.0
 20
0.0
 11
1.0
 21
1.0
 12
75.791860027
 22
107.1913448954
 13
0.0
 23
0.0
 14
1.0
 24
1.0
 15
0.0
 25
0.0
 16
0.0
 26
0.0
 36
1.0
 17
0.0
 27
0.0
 37
0.0
 40
214.3826897907
 41
0.7070707071
 42
50.0
 43
0.0
 44
0.0
 50
0.0
 51
0.0
 71
0
 72
100
 73
1
 74
1
 75
0
 76
0
 77
0
 78
0
  0
ENDTAB
  0
TABLE
  2
LTYPE
  5
5
100
AcDbSymbolTable
 70
6
  0
LTYPE
  5
14
100
AcDbSymbolTableRecord
100
AcDbLinetypeTableRecord
  2
BYBLOCK
 70
0
  3

 72
65
 73
0
 40
0.0
  0
LTYPE
  5
15
100
AcDbSymbolTableRecord
100
AcDbLinetypeTableRecord
  2
BYLAYER
 70
0
  3

 72
65
 73
0
 40
0.0
  0
LTYPE
  5
16
100
AcDbSymbolTableRecord
100
AcDbLinetypeTableRecord
  2
CONTINUOUS
 70
64
  3
Solid line
 72
65
 73
0
 40
0.0
  0
LTYPE
  5
1F5
100
AcDbSymbolTableRecord
100
AcDbLinetypeTableRecord
  2
CENTER
 70
64
  3
____ _ ____ _ ____ _ ____ _ ____ _ ____ _ ____
 72
65
 73
4
 40
0.6
 49
0.375
 74
0
 49
-0.075
 74
0
 49
0.075
 74
0
 49
-0.075
 74
0
  0
LTYPE
  5
1F6
100
AcDbSymbolTableRecord
100
AcDbLinetypeTableRecord
  2
HIDDEN
 70
64
  3
- - - - - - - - - - - - - - - - - - - -
 72
65
 73
2
 40
0.2
 49
0.1
 74
0
 49
-0.1
 74
0
  0
LTYPE
  5
1F7
100
AcDbSymbolTableRecord
100
AcDbLinetypeTableRecord
  2
PHANTOM
 70
64
  3
_____ _ _ _____ _ _ _____ _ _ _____
 72
65
 73
6
 40
0.8
 49
0.45
 74
0
 49
-0.05
 74
0
 49
0.1
 74
0
 49
-0.05
 74
0
 49
0.1
 74
0
 49
-0.05
 74
0
  0
LTYPE
  5
1F8
100
AcDbSymbolTableRecord
100
AcDbLinetypeTableRecord
  2
DOT
 70
64
  3
. . . . . . . . . . . . . . . . . . . .
 72
65
 73
2
 40
0.2
 49
0.1
 74
0
 49
-0.1
 74
0
  0
LTYPE
  5
1F9
100
AcDbSymbolTableRecord
100
AcDbLinetypeTableRecord
  2
DASHED
 70
64
  3
- - - - - - - - - - - - - - - - - - - -
 72
65
 73
2
 40
0.2
 49
0.1
 74
0
 49
-0.1
 74
0
  0
ENDTAB
  0
TABLE
  2
LAYER
  5
2
100
AcDbSymbolTable
 70
36
  0
LAYER
  5
10
100
AcDbSymbolTableRecord
100
AcDbLayerTableRecord
  2
0
 70
0
 62
7
  6
CONTINUOUS
370
-3
390
F
  0
LAYER
  5
1FA
100
AcDbSymbolTableRecord
100
AcDbLayerTableRecord
  2
DEFAULT_1
 70
0
 62
7
  6
CENTER
370
-3
390
F
  0
LAYER
  5
1FB
100
AcDbSymbolTableRecord
100
AcDbLayerTableRecord
  2
DEFAULT_2
 70
0
 62
7
  6
HIDDEN
370
-3
390
F
  0
LAYER
  5
1FC
100
AcDbSymbolTableRecord
100
AcDbLayerTableRecord
  2
DEFAULT_3
 70
0
 62
7
  6
PHANTOM
370
-3
390
F
  0
LAYER
  5
1FD
100
AcDbSymbolTableRecord
100
AcDbLayerTableRecord
  2
00_COMPONENTS
 70
0
 62
7
  6
CONTINUOUS
370
-3
390
F
  0
LAYER
  5
1FE
100
AcDbSymbolTableRecord
100
AcDbLayerTableRecord
  2
01_1_DEFAULT_DATUMS
 70
0
 62
7
  6
CONTINUOUS
370
-3
390
F
  0
LAYER
  5
1FF
100
AcDbSymbolTableRecord
100
AcDbLayerTableRecord
  2
01_PLANES
 70
0
 62
7
  6
CONTINUOUS
370
-3
390
F
  0
LAYER
  5
200
100
AcDbSymbolTableRecord
100
AcDbLayerTableRecord
  2
02_COORD_SYS
 70
0
 62
7
  6
CONTINUOUS
370
-3
390
F
  0
LAYER
  5
201
100
AcDbSymbolTableRecord
100
AcDbLayerTableRecord
  2
03_AXES
 70
0
 62
7
  6
CONTINUOUS
370
-3
390
F
  0
LAYER
  5
202
100
AcDbSymbolTableRecord
100
AcDbLayerTableRecord
  2
04_POINTS
 70
0
 62
7
  6
CONTINUOUS
370
-3
390
F
  0
LAYER
  5
203
100
AcDbSymbolTableRecord
100
AcDbLayerTableRecord
  2
05_CURVES
 70
0
 62
7
  6
CONTINUOUS
370
-3
390
F
  0
LAYER
  5
204
100
AcDbSymbolTableRecord
100
AcDbLayerTableRecord
  2
06_SURFS
 70
0
 62
7
  6
CONTINUOUS
370
-3
390
F
  0
LAYER
  5
205
100
AcDbSymbolTableRecord
100
AcDbLayerTableRecord
  2
07_COSMETICS
 70
0
 62
7
  6
CONTINUOUS
370
-3
390
F
  0
LAYER
  5
206
100
AcDbSymbolTableRecord
100
AcDbLayerTableRecord
  2
10_NOTES
 70
0
 62
7
  6
CONTINUOUS
370
-3
390
F
  0
LAYER
  5
207
100
AcDbSymbolTableRecord
100
AcDbLayerTableRecord
  2
11_NOTES_PUB
 70
0
 62
7
  6
CONTINUOUS
370
-3
390
F
  0
LAYER
  5
208
100
AcDbSymbolTableRecord
100
AcDbLayerTableRecord
  2
13_REF_GTOL
 70
0
 62
7
  6
CONTINUOUS
370
-3
390
F
  0
LAYER
  5
209
100
AcDbSymbolTableRecord
100
AcDbLayerTableRecord
  2
16_MISC
 70
0
 62
7
  6
CONTINUOUS
370
-3
390
F
  0
LAYER
  5
20A
100
AcDbSymbolTableRecord
100
AcDbLayerTableRecord
  2
17_NO_PRINT
 70
0
 62
7
  6
CONTINUOUS
370
-3
390
F
  0
LAYER
  5
20B
100
AcDbSymbolTableRecord
100
AcDbLayerTableRecord
  2
18_DATUM_CAMS_JOINTS
 70
0
 62
7
  6
CONTINUOUS
370
-3
390
F
  0
LAYER
  5
20C
100
AcDbSymbolTableRecord
100
AcDbLayerTableRecord
  2
19_DATUM_FUNCTIONAL
 70
0
 62
7
  6
CONTINUOUS
370
-3
390
F
  0
LAYER
  5
20D
100
AcDbSymbolTableRecord
100
AcDbLayerTableRecord
  2
20_DATUM_KINEMATIC_SCHEME
 70
0
 62
7
  6
CONTINUOUS
370
-3
390
F
  0
ENDTAB
  0
TABLE
  2
STYLE
  5
3
100
AcDbSymbolTable
 70
1
  0
STYLE
  5
11
100
AcDbSymbolTableRecord
100
AcDbTextStyleTableRecord
  2
STANDARD
 70
0
 40
0.0
 41
1.0
 50
0.0
 71
0
 42
0.2
  3
ARIAL.TTF
  4

  0
STYLE
  5
20E
100
AcDbSymbolTableRecord
100
AcDbTextStyleTableRecord
  2
TEXTSTYLE_1
 70
0
 40
0.0
 41
0.8
 50
0.0
 71
0
 42
0.2
  3
gdt
  4

  0
ENDTAB
  0
TABLE
  2
VIEW
  5
6
100
AcDbSymbolTable
 70
0
  0
ENDTAB
  0
TABLE
  2
UCS
  5
7
100
AcDbSymbolTable
 70
0
  0
ENDTAB
  0
TABLE
  2
APPID
  5
9
100
AcDbSymbolTable
 70
1
  0
APPID
  5
20F
100
AcDbSymbolTableRecord
100
AcDbRegAppTableRecord
  2
ACAD
 70
0
  0
ENDTAB
  0
TABLE
  2
BLOCK_RECORD
  5
1
100
AcDbSymbolTable
 70
0
  0
BLOCK_RECORD
  5
210
100
AcDbSymbolTableRecord
100
AcDbBlockTableRecord
  2
*Model_Space
  0
BLOCK_RECORD
  5
211
100
AcDbSymbolTableRecord
100
AcDbBlockTableRecord
  2
*Paper_Space
  0
BLOCK_RECORD
  5
212
100
AcDbSymbolTableRecord
100
AcDbBlockTableRecord
  2
_FILLED
  0
ENDTAB
  0
TABLE
  2
DIMSTYLE
  5
A
100
AcDbSymbolTable
 70
1
100
AcDbDimStyleTable
 71
0
  0
DIMSTYLE
105
213
100
AcDbSymbolTableRecord
100
AcDbDimStyleTableRecord
  2
STANDARD
 70
0
  3

  4

 40
1.0
 41
1.8045680959
 42
1.0
 43
0.38
 44
1.0
 45
0.0
 46
0.0
 47
0.01
 48
0.01
140
2.5263953342
141
0.09
142
0.0
143
25.4
144
1.0
145
0.0
146
1.0
147
0.625
 71
1
 72
0
 73
0
 74
0
 75
0
 76
0
 77
1
 78
8
 79
2
170
0
171
1
172
0
173
0
174
0
175
0
176
0
177
0
178
0
270
2
179
2
271
2
272
2
273
2
274
2
275
0
280
0
281
0
282
0
283
1
284
8
285
0
286
0
287
3
288
0
340
11
278
46
341
212
342
212
343
212
344
212
  0
ENDTAB
  0
ENDSEC
  0
SECTION
  2
BLOCKS
  0
BLOCK
  5
20
100
AcDbEntity
  8
0
100
AcDbBlockBegin
  2
*Model_Space
 70
0
 10
0.0
 20
0.0
 30
0.0
  3
*Model_Space
  1

  0
ENDBLK
  5
21
100
AcDbEntity
  8
0
100
AcDbBlockEnd
  0
BLOCK
  5
1C
100
AcDbEntity
  8
0
100
AcDbBlockBegin
  2
*Paper_Space
 70
0
 10
0.0
 20
0.0
 30
0.0
  3
*Paper_Space
  1

  0
ENDBLK
  5
1D
100
AcDbEntity
  8
0
100
AcDbBlockEnd
  0
BLOCK
  5
214
100
AcDbEntity
  8
0
100
AcDbBlockBegin
  2
_FILLED
 70
64
 10
0.0
 20
0.0
  3
_FILLED
  1

  0
SOLID
  5
215
100
AcDbEntity
  8
0
  6
BYBLOCK
 62
0
100
AcDbTrace
 10
0.0
 20
0.0
 11
-1.0
 21
0.25
 12
-1.0
 22
-0.25
 13
-1.0
 23
-0.25
  0
ENDBLK
  5
216
100
AcDbEntity
  8
0
  6
BYBLOCK
 62
0
100
AcDbBlockEnd
  0
ENDSEC
  0
SECTION
  2
ENTITIES
  0
LINE
  5
217
100
AcDbEntity
  8
0
100
AcDbLine
 62
7
  6
BYLAYER
 10
17.5458446422
 20
110.9182611758
 11
17.5458446422
 21
112.9921773153
  0
LINE
  5
218
100
AcDbEntity
  8
0
100
AcDbLine
 62
7
  6
BYLAYER
 10
19.4057352723
 20
108.3259107987
 11
19.4057352723
 21
110.3998269382
  0
LINE
  5
219
100
AcDbEntity
  8
0
100
AcDbLine
 62
7
  6
BYLAYER
 10
55.8506193959
 20
57.5322918556
 11
53.0366090664
 21
58.4702728705
  0
LINE
  5
21A
100
AcDbEntity
  8
0
100
AcDbLine
 62
7
  6
BYLAYER
 10
77.7822192855
 20
56.4138268632
 11
58.487778056
 21
64.2137137273
  0
LINE
  5
21B
100
AcDbEntity
  8
0
100
AcDbLine
 62
7
  6
BYLAYER
 10
31.4014676492
 20
77.8083775527
 11
31.4014676492
 21
101.4003281594
  0
LINE
  5
21C
100
AcDbEntity
  8
0
100
AcDbLine
 62
7
  6
BYLAYER
 10
77.7679275993
 20
60.5498066272
 11
58.4698176185
 21
68.3511766048
  0
LINE
  5
21D
100
AcDbEntity
  8
0
100
AcDbLine
 62
7
  6
BYLAYER
 10
58.487778056
 20
64.2137137273
 11
57.4815770126
 21
65.0433491697
  0
LINE
  5
21E
100
AcDbEntity
  8
0
100
AcDbLine
 62
7
  6
BYLAYER
 10
58.4698176185
 20
68.3511766048
 11
57.6722952451
 21
69.0087517797
  0
LINE
  5
21F
100
AcDbEntity
  8
0
100
AcDbLine
 62
7
  6
BYLAYER
 10
39.7015770126
 20
68.8410370618
 11
39.7015770126
 21
60.3666980218
  0
LINE
  5
220
100
AcDbEntity
  8
0
100
AcDbLine
 62
7
  6
BYLAYER
 10
94.1211177234
 20
158.721216372
 11
19.4056978998
 21
115.5845061156
  0
LINE
  5
221
100
AcDbEntity
  8
0
100
AcDbLine
 62
7
  6
BYLAYER
 10
48.2613529043
 20
70.8806256833
 11
48.2613529043
 21
91.6664890777
  0
LINE
  5
222
100
AcDbEntity
  8
0
100
AcDbLine
 62
7
  6
BYLAYER
 10
50.8367625551
 20
92.2535253998
 11
50.8367625551
 21
90.1796092603
  0
LINE
  5
223
100
AcDbEntity
  8
0
100
AcDbLine
 62
7
  6
BYLAYER
 10
82.1580529741
 20
77.6650464685
 11
48.2613529299
 21
70.8806256884
  0
LINE
  5
224
100
AcDbEntity
  8
0
100
AcDbLine
 62
7
  6
BYLAYER
 10
50.8367625392
 20
90.1796092694
 11
19.4057352882
 21
108.3259107895
  0
LINE
  5
225
100
AcDbEntity
  8
0
100
AcDbLine
 62
7
  6
BYLAYER
 10
19.4057352882
 20
110.399826929
 11
50.8367625392
 21
92.2535254089
  0
LINE
  5
226
100
AcDbEntity
  8
0
100
AcDbLine
 62
7
  6
BYLAYER
 10
53.0366090664
 20
55.9217722514
 11
53.0366090664
 21
66.7411994066
  0
LINE
  5
227
100
AcDbEntity
  8
0
100
AcDbLine
 62
7
  6
BYLAYER
 10
54.0867576162
 20
70.9872908629
 11
54.0867576162
 21
72.0465797947
  0
LINE
  5
228
100
AcDbEntity
  8
0
100
AcDbLine
 62
7
  6
BYLAYER
 10
56.2905613585
 20
67.9961801033
 11
56.2905613585
 21
57.8004312691
  0
LINE
  5
229
100
AcDbEntity
  8
0
100
AcDbLine
 62
7
  6
BYLAYER
 10
76.6743342366
 20
79.9522990403
 11
72.449935427
 21
82.3912016549
  0
LINE
  5
22A
100
AcDbEntity
  8
0
100
AcDbLine
 62
7
  6
BYLAYER
 10
75.6222036455
 20
82.2778526681
 11
70.8873649415
 21
85.0114512262
  0
LINE
  5
22B
100
AcDbEntity
  8
0
100
AcDbLine
 62
7
  6
BYLAYER
 10
57.4815770126
 20
68.8435730735
 11
57.4815770126
 21
60.3666980218
  0
LINE
  5
22C
100
AcDbEntity
  8
0
100
AcDbLine
 62
7
  6
BYLAYER
 10
58.4698176185
 20
68.3511766048
 11
58.4698176185
 21
69.6994760598
  0
LINE
  5
22D
100
AcDbEntity
  8
0
100
AcDbLine
 62
7
  6
BYLAYER
 10
58.487778056
 20
64.2137137273
 11
58.487778056
 21
68.3615460063
  0
LINE
  5
22E
100
AcDbEntity
  8
0
100
AcDbLine
 62
7
  6
BYLAYER
 10
59.8170186761
 20
90.1796308461
 11
59.8170186761
 21
92.2535469857
  0
LINE
  5
22F
100
AcDbEntity
  8
0
100
AcDbLine
 62
7
  6
BYLAYER
 10
60.0215770126
 20
73.1906037956
 11
60.0215770126
 21
72.8101948588
  0
LINE
  5
230
100
AcDbEntity
  8
0
100
AcDbLine
 62
7
  6
BYLAYER
 10
70.8873649415
 20
96.5710600908
 11
70.8873649415
 21
85.0114512262
  0
LINE
  5
231
100
AcDbEntity
  8
0
100
AcDbLine
 62
7
  6
BYLAYER
 10
75.6222036455
 20
99.2839650121
 11
75.6042427481
 21
99.2943345064
  0
LINE
  5
232
100
AcDbEntity
  8
0
100
AcDbLine
 62
7
  6
BYLAYER
 10
75.6222036455
 20
99.2839650121
 11
75.6222036455
 21
82.2778526864
  0
LINE
  5
233
100
AcDbEntity
  8
0
100
AcDbLine
 62
7
  6
BYLAYER
 10
77.7679275993
 20
76.7863633583
 11
77.7679275993
 21
60.5498066272
  0
LINE
  5
234
100
AcDbEntity
  8
0
100
AcDbLine
 62
7
  6
BYLAYER
 10
77.7822192855
 20
60.5616591422
 11
77.7822192855
 21
56.4138268632
  0
LINE
  5
235
100
AcDbEntity
  8
0
100
AcDbLine
 62
7
  6
BYLAYER
 10
82.1580529741
 20
81.9034722339
 11
82.1580529741
 21
77.6650464685
  0
LINE
  5
236
100
AcDbEntity
  8
0
100
AcDbLine
 62
7
  6
BYLAYER
 10
59.8170186919
 20
92.2535469948
 11
134.5324385156
 21
135.3902572512
  0
LINE
  5
237
100
AcDbEntity
  8
0
100
AcDbLine
 62
7
  6
BYLAYER
 10
85.5004442514
 20
104.9871358417
 11
85.482483354
 21
104.997505336
  0
LINE
  5
238
100
AcDbEntity
  8
0
100
AcDbLine
 62
7
  6
BYLAYER
 10
85.5004442514
 20
83.8331912187
 11
85.5004442514
 21
104.9871358417
  0
LINE
  5
239
100
AcDbEntity
  8
0
100
AcDbLine
 62
7
  6
BYLAYER
 10
85.8820254127
 20
56.8229748278
 11
85.8820254127
 21
60.9541061016
  0
LINE
  5
23A
100
AcDbEntity
  8
0
100
AcDbLine
 62
7
  6
BYLAYER
 10
85.9002630684
 20
60.9605977564
 11
85.9002630684
 21
105.2387091268
  0
LINE
  5
23B
100
AcDbEntity
  8
0
100
AcDbLine
 62
7
  6
BYLAYER
 10
134.5324385156
 20
133.3163411117
 11
59.8170186919
 21
90.1796308553
  0
LINE
  5
23C
100
AcDbEntity
  8
0
100
AcDbLine
 62
7
  6
BYLAYER
 10
129.3239116665
 20
130.288475522
 11
122.858154179
 21
126.555490979
  0
LINE
  5
23D
100
AcDbEntity
  8
0
100
AcDbLine
 62
7
  6
BYLAYER
 10
85.5004442514
 20
104.9871358417
 11
75.6222036455
 21
99.2839650121
  0
LINE
  5
23E
100
AcDbEntity
  8
0
100
AcDbLine
 62
7
  6
BYLAYER
 10
122.858154179
 20
93.3728327469
 11
122.768351244
 21
93.4246793227
  0
LINE
  5
23F
100
AcDbEntity
  8
0
100
AcDbLine
 62
7
  6
BYLAYER
 10
79.2142911544
 20
80.2039006999
 11
85.5004442514
 21
83.8331912187
  0
LINE
  5
240
100
AcDbEntity
  8
0
100
AcDbLine
 62
7
  6
BYLAYER
 10
60.2777367705
 20
73.2857035905
 11
54.0867576381
 21
70.987290871
  0
LINE
  5
241
100
AcDbEntity
  8
0
100
AcDbLine
 62
7
  6
BYLAYER
 10
53.0366090664
 20
55.9217722514
 11
52.7826072348
 21
55.7609847818
  0
LINE
  5
242
100
AcDbEntity
  8
0
100
AcDbLine
 62
7
  6
BYLAYER
 10
55.8506193959
 20
57.5322918556
 11
56.2905613585
 21
57.8004312691
  0
LINE
  5
243
100
AcDbEntity
  8
0
100
AcDbLine
 62
7
  6
BYLAYER
 10
122.858154179
 20
93.3728327469
 11
125.7318241576
 21
95.031936979
  0
LINE
  5
244
100
AcDbEntity
  8
0
100
AcDbLine
 62
7
  6
BYLAYER
 10
122.858154179
 20
126.555490979
 11
122.8401932817
 21
126.5658604734
  0
LINE
  5
245
100
AcDbEntity
  8
0
100
AcDbLine
 62
7
  6
BYLAYER
 10
122.768351244
 20
126.5243827011
 11
122.768351244
 21
93.4246793227
  0
LINE
  5
246
100
AcDbEntity
  8
0
100
AcDbLine
 62
7
  6
BYLAYER
 10
122.858154179
 20
126.555490979
 11
122.858154179
 21
93.3728327469
  0
LINE
  5
247
100
AcDbEntity
  8
0
100
AcDbLine
 62
7
  6
BYLAYER
 10
124.7260387781
 20
83.3765360088
 11
124.7260387781
 21
79.2494425328
  0
LINE
  5
248
100
AcDbEntity
  8
0
100
AcDbLine
 62
7
  6
BYLAYER
 10
124.7439993651
 20
94.4616194735
 11
124.7439993651
 21
83.3869054966
  0
LINE
  5
249
100
AcDbEntity
  8
0
100
AcDbLine
 62
7
  6
BYLAYER
 10
124.7439993651
 20
83.3869054966
 11
85.9002630684
 21
60.9605977564
  0
LINE
  5
24A
100
AcDbEntity
  8
0
100
AcDbLine
 62
7
  6
BYLAYER
 10
129.3239116665
 20
130.288475522
 11
129.3059507691
 21
130.2988450164
  0
LINE
  5
24B
100
AcDbEntity
  8
0
100
AcDbLine
 62
7
  6
BYLAYER
 10
126.5784526104
 20
81.8314020088
 11
126.5784526104
 21
85.718410493
  0
LINE
  5
24C
100
AcDbEntity
  8
0
100
AcDbLine
 62
7
  6
BYLAYER
 10
126.6038526104
 20
85.9792342879
 11
126.6038526104
 21
95.6787811975
  0
LINE
  5
24D
100
AcDbEntity
  8
0
100
AcDbLine
 62
7
  6
BYLAYER
 10
129.3239116665
 20
101.2536495872
 11
129.3239116665
 21
130.288475522
  0
LINE
  5
24E
100
AcDbEntity
  8
0
100
AcDbLine
 62
7
  6
BYLAYER
 10
124.7260387781
 20
79.2494425328
 11
85.8820254127
 21
56.8229748278
  0
LINE
  5
24F
100
AcDbEntity
  8
0
100
AcDbLine
 62
7
  6
BYLAYER
 10
134.5324385314
 20
135.3902572603
 11
134.5324385314
 21
133.3163411208
  0
LINE
  5
250
100
AcDbEntity
  8
0
100
AcDbLine
 62
7
  6
BYLAYER
 10
134.5324011272
 20
140.5749364378
 11
103.1013738761
 21
158.7212379579
  0
LINE
  5
251
100
AcDbEntity
  8
0
100
AcDbLine
 62
7
  6
BYLAYER
 10
136.3922917732
 20
135.908669912
 11
136.3922917732
 21
137.9825860515
  0
ARC
  5
252
100
AcDbEntity
  8
0
100
AcDbCircle
 62
7
  6
BYLAYER
 10
41.1260531339
 20
109.6332076074
 40
12.0100940573
100
AcDbArc
 50
240.001337552
 51
240.5277610607
  0
ARC
  5
253
100
AcDbEntity
  8
0
100
AcDbCircle
 62
7
  6
BYLAYER
 10
49.2880076814
 20
67.1702394141
 40
11.8566447975
100
AcDbArc
 50
287.1675053838
 51
288.4308793962
  0
ARC
  5
254
100
AcDbEntity
  8
0
100
AcDbCircle
 62
7
  6
BYLAYER
 10
41.0307631078
 20
109.4680928499
 40
11.8194554691
100
AcDbArc
 50
239.4691437435
 51
240.0011952995
  0
ARC
  5
255
100
AcDbEntity
  8
0
100
AcDbCircle
 62
7
  6
BYLAYER
 10
46.8818690743
 20
64.7072037243
 40
9.1906385235
100
AcDbArc
 50
242.7080097463
 51
243.5817780941
  0
ARC
  5
256
100
AcDbEntity
  8
0
100
AcDbCircle
 62
7
  6
BYLAYER
 10
46.6985204849
 20
64.3541373766
 40
8.7928051391
100
AcDbArc
 50
240.0238528914
 51
242.7148427027
  0
ARC
  5
257
100
AcDbEntity
  8
0
100
AcDbCircle
 62
7
  6
BYLAYER
 10
126.5409499841
 20
112.4143533122
 40
1.8009284799
100
AcDbArc
 50
110.123149775
 51
112.3692621884
  0
ARC
  5
258
100
AcDbEntity
  8
0
100
AcDbCircle
 62
7
  6
BYLAYER
 10
79.3049994505
 20
85.1428273453
 40
1.8009284799
100
AcDbArc
 50
110.123149775
 51
112.3692621885
  0
SPLINE
  5
259
100
AcDbEntity
  8
0
100
AcDbSpline
 62
7
  6
BYLAYER
 70
0
 71
3
 72
11
 73
7
 74
0
 42
0.0000001
 43
0.0000001
 44
0.0000000001
 40
0.0
 40
0.0
 40
0.0
 40
0.0
 40
0.2324799321
 40
0.4726114989
 40
0.7270386813
 40
1.0
 40
1.0
 40
1.0
 40
1.0
 10
57.4815186853
 20
60.3666980227
 30
0.0
 10
57.4815077629
 20
60.1419647934
 30
0.0
 10
57.4287221754
 20
59.6835269309
 30
0.0
 10
57.1946625349
 20
59.0154512688
 30
0.0
 10
56.8122506822
 20
58.3746392465
 30
0.0
 10
56.477143017
 20
57.9870120542
 30
0.0
 10
56.2905613585
 20
57.8004312691
 30
0.0
  0
SPLINE
  5
25A
100
AcDbEntity
  8
0
100
AcDbSpline
 62
7
  6
BYLAYER
 70
0
 71
3
 72
15
 73
11
 74
0
 42
0.0000001
 43
0.0000001
 44
0.0000000001
 40
0.0
 40
0.0
 40
0.0
 40
0.0
 40
0.1068071032
 40
0.2254336318
 40
0.3535011246
 40
0.4874905562
 40
0.6232809861
 40
0.7565389451
 40
0.8832669692
 40
1.0
 40
1.0
 40
1.0
 40
1.0
 10
133.8070383786
 20
136.9782590758
 30
0.0
 10
133.6635901111
 20
137.0983527112
 30
0.0
 10
133.3298763973
 20
137.3155677993
 30
0.0
 10
132.7566688354
 20
137.5560595126
 30
0.0
 10
132.1080444148
 20
137.7201538003
 30
0.0
 10
131.4138881362
 20
137.8002569493
 30
0.0
 10
130.7061428526
 20
137.7927295156
 30
0.0
 10
130.0173801212
 20
137.698032893
 30
0.0
 10
129.3797811417
 20
137.5203697311
 30
0.0
 10
128.9890624764
 20
137.3433634189
 30
0.0
 10
128.8119870794
 20
137.241129501
 30
0.0
  0
SPLINE
  5
25B
100
AcDbEntity
  8
0
100
AcDbSpline
 62
7
  6
BYLAYER
 70
0
 71
3
 72
11
 73
7
 74
0
 42
0.0000001
 43
0.0000001
 44
0.0000000001
 40
0.0
 40
0.0
 40
0.0
 40
0.0
 40
0.2177827477
 40
0.4509152641
 40
0.7103063952
 40
1.0
 40
1.0
 40
1.0
 40
1.0
 10
134.3838075044
 20
137.9825886791
 30
0.0
 10
134.3837905185
 20
137.8582727381
 30
0.0
 10
134.3378767664
 20
137.5991559952
 30
0.0
 10
134.1414302056
 20
137.2381214558
 30
0.0
 10
133.8308946094
 20
136.9117732028
 30
0.0
 10
133.5710680077
 20
136.7328135189
 30
0.0
 10
133.4278579432
 20
136.6501316432
 30
0.0
  0
SPLINE
  5
25C
100
AcDbEntity
  8
0
100
AcDbSpline
 62
7
  6
BYLAYER
 70
0
 71
3
 72
12
 73
8
 74
0
 42
0.0000001
 43
0.0000001
 44
0.0000000001
 40
0.0
 40
0.0
 40
0.0
 40
0.0
 40
0.2513770014
 40
0.5137272764
 40
0.7686977623
 40
0.8882026203
 40
1.0
 40
1.0
 40
1.0
 40
1.0
 10
52.7826072348
 20
55.7609847818
 30
0.0
 10
51.9554903933
 20
55.4852804586
 30
0.0
 10
50.1965802992
 20
55.1174551256
 30
0.0
 10
47.5180021616
 20
55.0688548357
 30
0.0
 10
45.3234979653
 20
55.438619437
 30
0.0
 10
43.7249715528
 20
55.9855685051
 30
0.0
 10
43.0003098397
 20
56.3362296489
 30
0.0
 10
42.6645185992
 20
56.530121592
 30
0.0
  0
SPLINE
  5
25D
100
AcDbEntity
  8
0
100
AcDbSpline
 62
7
  6
BYLAYER
 70
0
 71
3
 72
15
 73
11
 74
0
 42
0.0000001
 43
0.0000001
 44
0.0000000001
 40
0.0
 40
0.0
 40
0.0
 40
0.0
 40
0.1068071032
 40
0.2254336318
 40
0.3535011246
 40
0.4874905562
 40
0.6232809861
 40
0.7565389451
 40
0.8832669692
 40
1.0
 40
1.0
 40
1.0
 40
1.0
 10
58.0139922753
 20
93.2193847106
 30
0.0
 10
57.8705440078
 20
93.339478346
 30
0.0
 10
57.536830294
 20
93.5566934341
 30
0.0
 10
56.9636227321
 20
93.7971851474
 30
0.0
 10
56.3149983116
 20
93.9612794351
 30
0.0
 10
55.620842033
 20
94.0413825841
 30
0.0
 10
54.9130967493
 20
94.0338551504
 30
0.0
 10
54.2243340179
 20
93.9391585278
 30
0.0
 10
53.5867350384
 20
93.7614953659
 30
0.0
 10
53.1960163732
 20
93.5844890537
 30
0.0
 10
53.0189409761
 20
93.4822551358
 30
0.0
  0
SPLINE
  5
25E
100
AcDbEntity
  8
0
100
AcDbSpline
 62
7
  6
BYLAYER
 70
0
 71
3
 72
19
 73
15
 74
0
 42
0.0000001
 43
0.0000001
 44
0.0000000001
 40
0.0
 40
0.0
 40
0.0
 40
0.0
 40
0.0607004374
 40
0.1250432533
 40
0.2619803068
 40
0.4050376989
 40
0.5472849538
 40
0.6819136602
 40
0.7446310481
 40
0.8035381879
 40
0.858359326
 40
0.90908758
 40
0.9560579211
 40
1.0
 40
1.0
 40
1.0
 40
1.0
 10
56.6738411711
 20
68.1440030347
 30
0.0
 10
56.2952274052
 20
67.9254115798
 30
0.0
 10
55.4874650712
 20
67.5221358286
 30
0.0
 10
53.7191394001
 20
66.8567324858
 30
0.0
 10
51.2847899974
 20
66.315428358
 30
0.0
 10
48.2372425478
 20
66.1349533083
 30
0.0
 10
45.2145264411
 20
66.4228477391
 30
0.0
 10
42.8356924155
 20
67.0509395261
 30
0.0
 10
41.1373450199
 20
67.7809349727
 30
0.0
 10
40.0288965159
 20
68.4084289097
 30
0.0
 10
39.0758940223
 20
69.1177163042
 30
0.0
 10
38.2957480485
 20
69.8976183924
 30
0.0
 10
37.7037950705
 20
70.7350372155
 30
0.0
 10
37.4365017594
 20
71.3391608057
 30
0.0
 10
37.3423376391
 20
71.6413134625
 30
0.0
  0
SPLINE
  5
25F
100
AcDbEntity
  8
0
100
AcDbSpline
 62
7
  6
BYLAYER
 70
0
 71
3
 72
11
 73
7
 74
0
 42
0.0000001
 43
0.0000001
 44
0.0000000001
 40
0.0
 40
0.0
 40
0.0
 40
0.0
 40
0.2177827477
 40
0.4509152641
 40
0.7103063952
 40
1.0
 40
1.0
 40
1.0
 40
1.0
 10
58.5907614011
 20
94.2237143139
 30
0.0
 10
58.5907444152
 20
94.0993983729
 30
0.0
 10
58.5448306631
 20
93.84028163
 30
0.0
 10
58.3483841023
 20
93.4792470906
 30
0.0
 10
58.0378485062
 20
93.1528988377
 30
0.0
 10
57.7780219045
 20
92.9739391538
 30
0.0
 10
57.6348118399
 20
92.891257278
 30
0.0
  0
SPLINE
  5
260
100
AcDbEntity
  8
0
100
AcDbSpline
 62
7
  6
BYLAYER
 70
0
 71
3
 72
15
 73
11
 74
0
 42
0.0000001
 43
0.0000001
 44
0.0000000001
 40
0.0
 40
0.0
 40
0.0
 40
0.0
 40
0.1068071032
 40
0.2254336318
 40
0.3535011246
 40
0.4874905562
 40
0.6232809861
 40
0.7565389451
 40
0.8832669692
 40
1.0
 40
1.0
 40
1.0
 40
1.0
 10
101.2983758747
 20
155.7467195241
 30
0.0
 10
101.1549276072
 20
155.8668131595
 30
0.0
 10
100.8212138934
 20
156.0840282476
 30
0.0
 10
100.2480063315
 20
156.3245199609
 30
0.0
 10
99.5993819109
 20
156.4886142486
 30
0.0
 10
98.9052256323
 20
156.5687173976
 30
0.0
 10
98.1974803487
 20
156.5611899639
 30
0.0
 10
97.5087176173
 20
156.4664933413
 30
0.0
 10
96.8711186378
 20
156.2888301794
 30
0.0
 10
96.4803999725
 20
156.1118238672
 30
0.0
 10
96.3033245755
 20
156.0095899493
 30
0.0
  0
SPLINE
  5
261
100
AcDbEntity
  8
0
100
AcDbSpline
 62
7
  6
BYLAYER
 70
0
 71
3
 72
11
 73
7
 74
0
 42
0.0000001
 43
0.0000001
 44
0.0000000001
 40
0.0
 40
0.0
 40
0.0
 40
0.0
 40
0.2177827477
 40
0.4509152641
 40
0.7103063952
 40
1.0
 40
1.0
 40
1.0
 40
1.0
 10
101.8751450005
 20
156.7510491274
 30
0.0
 10
101.8751280146
 20
156.6267331864
 30
0.0
 10
101.8292142625
 20
156.3676164435
 30
0.0
 10
101.6327677017
 20
156.0065819041
 30
0.0
 10
101.3222321055
 20
155.6802336511
 30
0.0
 10
101.0624055038
 20
155.5012739673
 30
0.0
 10
100.9191954393
 20
155.4185920915
 30
0.0
  0
SPLINE
  5
262
100
AcDbEntity
  8
0
100
AcDbSpline
 62
7
  6
BYLAYER
 70
0
 71
3
 72
15
 73
11
 74
0
 42
0.0000001
 43
0.0000001
 44
0.0000000001
 40
0.0
 40
0.0
 40
0.0
 40
0.0
 40
0.1068071032
 40
0.2254336318
 40
0.3535011246
 40
0.4874905562
 40
0.6232809861
 40
0.7565389451
 40
0.8832669692
 40
1.0
 40
1.0
 40
1.0
 40
1.0
 10
25.5053297714
 20
111.9878451589
 30
0.0
 10
25.3618815039
 20
112.1079387943
 30
0.0
 10
25.0281677901
 20
112.3251538824
 30
0.0
 10
24.4549602282
 20
112.5656455958
 30
0.0
 10
23.8063358077
 20
112.7297398834
 30
0.0
 10
23.112179529
 20
112.8098430325
 30
0.0
 10
22.4044342454
 20
112.8023155987
 30
0.0
 10
21.715671514
 20
112.7076189762
 30
0.0
 10
21.0780725345
 20
112.5299558142
 30
0.0
 10
20.6873538692
 20
112.3529495021
 30
0.0
 10
20.5102784722
 20
112.2507155841
 30
0.0
  0
SPLINE
  5
263
100
AcDbEntity
  8
0
100
AcDbSpline
 62
7
  6
BYLAYER
 70
0
 71
3
 72
11
 73
7
 74
0
 42
0.0000001
 43
0.0000001
 44
0.0000000001
 40
0.0
 40
0.0
 40
0.0
 40
0.0
 40
0.2177827477
 40
0.4509152641
 40
0.7103063952
 40
1.0
 40
1.0
 40
1.0
 40
1.0
 10
26.0820988972
 20
112.9921747622
 30
0.0
 10
26.0820819113
 20
112.8678588213
 30
0.0
 10
26.0361681592
 20
112.6087420783
 30
0.0
 10
25.8397215984
 20
112.247707539
 30
0.0
 10
25.5291860022
 20
111.921359286
 30
0.0
 10
25.2693594005
 20
111.7423996021
 30
0.0
 10
25.126149336
 20
111.6597177263
 30
0.0
  0
SPLINE
  5
264
100
AcDbEntity
  8
0
100
AcDbSpline
 62
7
  6
BYLAYER
 70
0
 71
3
 72
12
 73
8
 74
0
 42
0.0000001
 43
0.0000001
 44
0.0000000001
 40
0.0
 40
0.0
 40
0.0
 40
0.0
 40
0.108160086
 40
0.2183661673
 40
0.4513442183
 40
0.7104418196
 40
1.0
 40
1.0
 40
1.0
 40
1.0
 10
136.3922450957
 20
137.9825860515
 30
0.0
 10
136.3922450941
 20
138.1027973235
 30
0.0
 10
136.3713994383
 20
138.346005691
 30
0.0
 10
136.2449418356
 20
138.8335062219
 30
0.0
 10
135.9207766318
 20
139.4314175289
 30
0.0
 10
135.3166664959
 20
140.0657747964
 30
0.0
 10
134.8111076257
 20
140.4140288059
 30
0.0
 10
134.5324011272
 20
140.5749364378
 30
0.0
  0
SPLINE
  5
265
100
AcDbEntity
  8
0
100
AcDbSpline
 62
7
  6
BYLAYER
 70
0
 71
3
 72
12
 73
8
 74
0
 42
0.0000001
 43
0.0000001
 44
0.0000000001
 40
0.0
 40
0.0
 40
0.0
 40
0.0
 40
0.1081603295
 40
0.2183666173
 40
0.4513448628
 40
0.7104422949
 40
1.0
 40
1.0
 40
1.0
 40
1.0
 10
136.3922450957
 20
135.908669912
 30
0.0
 10
136.3922450972
 20
135.7884599196
 30
0.0
 10
136.3713998926
 20
135.5452541965
 30
0.0
 10
136.24494504
 20
135.0577589642
 30
0.0
 10
135.9207869434
 20
134.4598536736
 30
0.0
 10
135.3166890785
 20
133.8255010883
 30
0.0
 10
134.8111398022
 20
133.4772484142
 30
0.0
 10
134.5324385156
 20
133.3163411117
 30
0.0
  0
SPLINE
  5
266
100
AcDbEntity
  8
0
100
AcDbSpline
 62
7
  6
BYLAYER
 70
0
 71
3
 72
13
 73
9
 74
0
 42
0.0000001
 43
0.0000001
 44
0.0000000001
 40
0.0
 40
0.0
 40
0.0
 40
0.0
 40
0.2894114513
 40
0.548298854
 40
0.6677465724
 40
0.7817777845
 40
0.8919132599
 40
1.0
 40
1.0
 40
1.0
 40
1.0
 10
35.1212489155
 20
72.6236767992
 30
0.0
 10
34.5637716638
 20
72.9455291593
 30
0.0
 10
33.552896495
 20
73.6410613728
 30
0.0
 10
32.5192291938
 20
74.7286737998
 30
0.0
 10
31.9372806105
 20
75.6603184002
 30
0.0
 10
31.6295753259
 20
76.3632337526
 30
0.0
 10
31.4433142374
 20
77.0816263393
 30
0.0
 10
31.4014736638
 20
77.5679684823
 30
0.0
 10
31.4014776821
 20
77.8083775088
 30
0.0
  0
SPLINE
  5
267
100
AcDbEntity
  8
0
100
AcDbSpline
 62
7
  6
BYLAYER
 70
0
 71
3
 72
13
 73
9
 74
0
 42
0.0000001
 43
0.0000001
 44
0.0000000001
 40
0.0
 40
0.0
 40
0.0
 40
0.0
 40
0.2588912033
 40
0.5203771842
 40
0.6479956051
 40
0.771328732
 40
0.8890584392
 40
1.0
 40
1.0
 40
1.0
 40
1.0
 10
48.2613529299
 20
70.8806256884
 30
0.0
 10
47.1181415953
 20
70.6518120658
 30
0.0
 10
44.7766772407
 20
70.3933323524
 30
0.0
 10
41.8488532574
 20
70.5352021661
 30
0.0
 10
39.5731534071
 20
70.9326767044
 30
0.0
 10
37.966607356
 20
71.3612384652
 30
0.0
 10
36.4784247251
 20
71.9142891272
 30
0.0
 10
35.5539278781
 20
72.373875135
 30
0.0
 10
35.1212489155
 20
72.6236767992
 30
0.0
  0
SPLINE
  5
268
100
AcDbEntity
  8
0
100
AcDbSpline
 62
7
  6
BYLAYER
 70
0
 71
3
 72
9
 73
5
 74
0
 42
0.0000001
 43
0.0000001
 44
0.0000000001
 40
0.0
 40
0.0
 40
0.0
 40
0.0
 40
0.4741272639
 40
1.0
 40
1.0
 40
1.0
 40
1.0
 10
124.3612726257
 20
109.7698991477
 30
0.0
 10
124.2563560187
 20
109.8305304505
 30
0.0
 10
124.0628579564
 20
110.0106931971
 30
0.0
 10
123.955584723
 20
110.2488256551
 30
0.0
 10
123.9172351616
 20
110.3776393146
 30
0.0
  0
SPLINE
  5
269
100
AcDbEntity
  8
0
100
AcDbSpline
 62
7
  6
BYLAYER
 70
0
 71
3
 72
9
 73
5
 74
0
 42
0.0000001
 43
0.0000001
 44
0.0000000001
 40
0.0
 40
0.0
 40
0.0
 40
0.0
 40
0.2444745709
 40
1.0
 40
1.0
 40
1.0
 40
1.0
 10
123.9172351616
 20
110.3776393146
 30
0.0
 10
123.9129531827
 20
110.3920222007
 30
0.0
 10
123.8963515917
 20
110.4511239842
 30
0.0
 10
123.8833174124
 20
110.5112126084
 30
0.0
 10
123.8752809734
 20
110.5568879598
 30
0.0
  0
SPLINE
  5
26A
100
AcDbEntity
  8
0
100
AcDbSpline
 62
7
  6
BYLAYER
 70
0
 71
3
 72
9
 73
5
 74
0
 42
0.0000001
 43
0.0000001
 44
0.0000000001
 40
0.0
 40
0.0
 40
0.0
 40
0.0
 40
0.2561711486
 40
1.0
 40
1.0
 40
1.0
 40
1.0
 10
125.9213601744
 20
114.1053446952
 30
0.0
 10
125.937514618
 20
114.1112601807
 30
0.0
 10
126.0009108848
 20
114.1334191982
 30
0.0
 10
126.0656617927
 20
114.1517601055
 30
0.0
 10
126.1143622098
 20
114.1628748404
 30
0.0
  0
SPLINE
  5
26B
100
AcDbEntity
  8
0
100
AcDbSpline
 62
7
  6
BYLAYER
 70
0
 71
3
 72
9
 73
5
 74
0
 42
0.0000001
 43
0.0000001
 44
0.0000000001
 40
0.0
 40
0.0
 40
0.0
 40
0.0
 40
0.5251516195
 40
1.0
 40
1.0
 40
1.0
 40
1.0
 10
126.1143622098
 20
114.1628748404
 30
0.0
 10
126.2428671936
 20
114.1922031075
 30
0.0
 10
126.4981423067
 20
114.2155464947
 30
0.0
 10
126.7459340935
 20
114.1387184542
 30
0.0
 10
126.8491254622
 20
114.0790841665
 30
0.0
  0
SPLINE
  5
26C
100
AcDbEntity
  8
0
100
AcDbSpline
 62
7
  6
BYLAYER
 70
0
 71
3
 72
12
 73
8
 74
0
 42
0.0000001
 43
0.0000001
 44
0.0000000001
 40
0.0
 40
0.0
 40
0.0
 40
0.0
 40
0.1081603296
 40
0.2183666174
 40
0.4513448629
 40
0.7104422948
 40
1.0
 40
1.0
 40
1.0
 40
1.0
 10
126.5784061197
 20
81.8314020088
 30
0.0
 10
126.5784061212
 20
81.7116728569
 30
0.0
 10
126.5576442976
 20
81.4694399576
 30
0.0
 10
126.4316952654
 20
80.9838947083
 30
0.0
 10
126.108833804
 20
80.3883810411
 30
0.0
 10
125.5071523349
 20
79.7565658675
 30
0.0
 10
125.0036252584
 20
79.4097062053
 30
0.0
 10
124.7260387781
 20
79.2494425328
 30
0.0
  0
SPLINE
  5
26D
100
AcDbEntity
  8
0
100
AcDbSpline
 62
7
  6
BYLAYER
 70
0
 71
3
 72
9
 73
5
 74
0
 42
0.0000001
 43
0.0000001
 44
0.0000000001
 40
0.0
 40
0.0
 40
0.0
 40
0.0
 40
0.4741272639
 40
1.0
 40
1.0
 40
1.0
 40
1.0
 10
77.1253220921
 20
82.4983731808
 30
0.0
 10
77.0204054852
 20
82.5590044836
 30
0.0
 10
76.8269074229
 20
82.7391672302
 30
0.0
 10
76.7196341895
 20
82.9772996882
 30
0.0
 10
76.6812846281
 20
83.1061133477
 30
0.0
  0
SPLINE
  5
26E
100
AcDbEntity
  8
0
100
AcDbSpline
 62
7
  6
BYLAYER
 70
0
 71
3
 72
9
 73
5
 74
0
 42
0.0000001
 43
0.0000001
 44
0.0000000001
 40
0.0
 40
0.0
 40
0.0
 40
0.0
 40
0.2444745709
 40
1.0
 40
1.0
 40
1.0
 40
1.0
 10
76.6812846281
 20
83.1061133477
 30
0.0
 10
76.6770026492
 20
83.1204962337
 30
0.0
 10
76.6604010581
 20
83.1795980173
 30
0.0
 10
76.6473668788
 20
83.2396866415
 30
0.0
 10
76.6393304398
 20
83.2853619929
 30
0.0
  0
SPLINE
  5
26F
100
AcDbEntity
  8
0
100
AcDbSpline
 62
7
  6
BYLAYER
 70
0
 71
3
 72
9
 73
5
 74
0
 42
0.0000001
 43
0.0000001
 44
0.0000000001
 40
0.0
 40
0.0
 40
0.0
 40
0.0
 40
0.2561711486
 40
1.0
 40
1.0
 40
1.0
 40
1.0
 10
78.6854096408
 20
86.8338187283
 30
0.0
 10
78.7015640845
 20
86.8397342138
 30
0.0
 10
78.7649603513
 20
86.8618932313
 30
0.0
 10
78.8297112591
 20
86.8802341385
 30
0.0
 10
78.8784116762
 20
86.8913488735
 30
0.0
  0
SPLINE
  5
270
100
AcDbEntity
  8
0
100
AcDbSpline
 62
7
  6
BYLAYER
 70
0
 71
3
 72
9
 73
5
 74
0
 42
0.0000001
 43
0.0000001
 44
0.0000000001
 40
0.0
 40
0.0
 40
0.0
 40
0.0
 40
0.5251516195
 40
1.0
 40
1.0
 40
1.0
 40
1.0
 10
78.8784116762
 20
86.8913488735
 30
0.0
 10
79.00691666
 20
86.9206771406
 30
0.0
 10
79.2621917732
 20
86.9440205278
 30
0.0
 10
79.50998356
 20
86.8671924873
 30
0.0
 10
79.6131749286
 20
86.8075581996
 30
0.0
  0
SPLINE
  5
271
100
AcDbEntity
  8
0
100
AcDbSpline
 62
7
  6
BYLAYER
 70
0
 71
3
 72
11
 73
7
 74
0
 42
0.0000001
 43
0.0000001
 44
0.0000000001
 40
0.0
 40
0.0
 40
0.0
 40
0.0
 40
0.2177745346
 40
0.4509306044
 40
0.7102242968
 40
1.0
 40
1.0
 40
1.0
 40
1.0
 10
76.6743529073
 20
79.9523313796
 30
0.0
 10
76.8419134734
 20
79.8555924214
 30
0.0
 10
77.2269271931
 20
79.7158138491
 30
0.0
 10
77.8663629475
 20
79.6996918868
 30
0.0
 10
78.5479541244
 20
79.86414211
 30
0.0
 10
78.9913322123
 20
80.0751760632
 30
0.0
 10
79.2142911544
 20
80.2039006999
 30
0.0
  0
SPLINE
  5
272
100
AcDbEntity
  8
0
100
AcDbSpline
 62
7
  6
BYLAYER
 70
0
 71
3
 72
14
 73
10
 74
0
 42
0.0000001
 43
0.0000001
 44
0.0000000001
 40
0.0
 40
0.0
 40
0.0
 40
0.0
 40
0.1123509266
 40
0.2329090622
 40
0.3596573795
 40
0.4903461535
 40
0.7526975883
 40
0.8795098012
 40
1.0
 40
1.0
 40
1.0
 40
1.0
 10
85.9002630684
 20
60.9605977564
 30
0.0
 10
85.6283403593
 20
60.8036040442
 30
0.0
 10
85.0387049292
 20
60.5219859817
 30
0.0
 10
84.0819829015
 20
60.2068349299
 30
0.0
 10
83.0454643361
 20
59.9914557343
 30
0.0
 10
81.5983680747
 20
59.8457554562
 30
0.0
 10
80.1350881431
 20
59.9166488407
 30
0.0
 10
78.7385950182
 20
60.2068110103
 30
0.0
 10
78.0801186916
 20
60.4236016146
 30
0.0
 10
77.7679275993
 20
60.5498066272
 30
0.0
  0
SPLINE
  5
273
100
AcDbEntity
  8
0
100
AcDbSpline
 62
7
  6
BYLAYER
 70
0
 71
3
 72
12
 73
8
 74
0
 42
0.0000001
 43
0.0000001
 44
0.0000000001
 40
0.0
 40
0.0
 40
0.0
 40
0.0
 40
0.1081603296
 40
0.2183666174
 40
0.4513448629
 40
0.7104422948
 40
1.0
 40
1.0
 40
1.0
 40
1.0
 10
126.603805933
 20
85.9792342878
 30
0.0
 10
126.6038059345
 20
85.8590242959
 30
0.0
 10
126.5829607301
 20
85.6158185738
 30
0.0
 10
126.4565058784
 20
85.1283233436
 30
0.0
 10
126.1323477847
 20
84.5304180552
 30
0.0
 10
125.5282499242
 20
83.8960654713
 30
0.0
 10
125.0227006506
 20
83.5478127983
 30
0.0
 10
124.7439993651
 20
83.3869054966
 30
0.0
  0
SPLINE
  5
274
100
AcDbEntity
  8
0
100
AcDbSpline
 62
7
  6
BYLAYER
 70
0
 71
3
 72
12
 73
8
 74
0
 42
0.0000001
 43
0.0000001
 44
0.0000000001
 40
0.0
 40
0.0
 40
0.0
 40
0.0
 40
0.1081590476
 40
0.2183579317
 40
0.4513601298
 40
0.7104173221
 40
1.0
 40
1.0
 40
1.0
 40
1.0
 10
60.0215634793
 20
72.8101948577
 30
0.0
 10
60.021565166
 20
72.593817939
 30
0.0
 10
59.9838712165
 20
72.1560854795
 30
0.0
 10
59.7566041696
 20
71.2784715395
 30
0.0
 10
59.1727947316
 20
70.2024063613
 30
0.0
 10
58.0856026266
 20
69.0604313725
 30
0.0
 10
57.1755502235
 20
68.4336631621
 30
0.0
 10
56.6738411711
 20
68.1440030347
 30
0.0
  0
SPLINE
  5
275
100
AcDbEntity
  8
0
100
AcDbSpline
 62
7
  6
BYLAYER
 70
0
 71
3
 72
12
 73
8
 74
0
 42
0.0000001
 43
0.0000001
 44
0.0000000001
 40
0.0
 40
0.0
 40
0.0
 40
0.0
 40
0.2895798774
 40
0.5486331397
 40
0.7816360031
 40
0.8918382323
 40
1.0
 40
1.0
 40
1.0
 40
1.0
 10
42.305288422
 20
56.7375151427
 30
0.0
 10
41.915096869
 20
56.9628196246
 30
0.0
 10
41.2072986798
 20
57.4502712064
 30
0.0
 10
40.3617409462
 20
58.3384554693
 30
0.0
 10
39.9076875034
 20
59.175372641
 30
0.0
 10
39.7308973327
 20
59.8579439425
 30
0.0
 10
39.70157145
 20
60.1984051284
 30
0.0
 10
39.701589226
 20
60.3666980213
 30
0.0
  0
SPLINE
  5
276
100
AcDbEntity
  8
0
100
AcDbSpline
 62
7
  6
BYLAYER
 70
0
 71
3
 72
13
 73
9
 74
0
 42
0.0000001
 43
0.0000001
 44
0.0000000001
 40
0.0
 40
0.0
 40
0.0
 40
0.0
 40
0.114227348
 40
0.2375641169
 40
0.5000112722
 40
0.7624638468
 40
0.8857438312
 40
1.0
 40
1.0
 40
1.0
 40
1.0
 10
76.6100277061
 20
83.0763005264
 30
0.0
 10
76.6100277061
 20
83.2537210491
 30
0.0
 10
76.6425764475
 20
83.623078718
 30
0.0
 10
76.8190149597
 20
84.3813086317
 30
0.0
 10
77.2290648516
 20
85.3113197478
 30
0.0
 10
77.8294553932
 20
86.1312988973
 30
0.0
 10
78.3977659357
 20
86.6632894337
 30
0.0
 10
78.7013535928
 20
86.8761016787
 30
0.0
 10
78.8550435934
 20
86.9648333645
 30
0.0
  0
SPLINE
  5
277
100
AcDbEntity
  8
0
100
AcDbSpline
 62
7
  6
BYLAYER
 70
0
 71
3
 72
17
 73
13
 74
0
 42
0.0000001
 43
0.0000001
 44
0.0000000001
 40
0.0
 40
0.0
 40
0.0
 40
0.0
 40
0.1286926208
 40
0.2702795078
 40
0.4174383051
 40
0.5617803148
 40
0.6954501289
 40
0.8127134773
 40
0.8646759206
 40
0.9125113962
 40
0.9571388332
 40
1.0
 40
1.0
 40
1.0
 40
1.0
 10
133.4278579432
 20
136.6501316432
 30
0.0
 10
133.1862452046
 20
136.5106372962
 30
0.0
 10
132.6392105741
 20
136.2849216265
 30
0.0
 10
131.7476395421
 20
136.1065785169
 30
0.0
 10
130.8046587022
 20
136.0804621275
 30
0.0
 10
129.8872082004
 20
136.2093937688
 30
0.0
 10
129.069683947
 20
136.4824631798
 30
0.0
 10
128.5010773868
 20
136.8285500828
 30
0.0
 10
128.1674140167
 20
137.1634517773
 30
0.0
 10
127.9901111477
 20
137.4241621861
 30
0.0
 10
127.8809450142
 20
137.6992077968
 30
0.0
 10
127.8560248224
 20
137.889670811
 30
0.0
 10
127.8560375182
 20
137.9825886046
 30
0.0
  0
SPLINE
  5
278
100
AcDbEntity
  8
0
100
AcDbSpline
 62
7
  6
BYLAYER
 70
0
 71
3
 72
17
 73
13
 74
0
 42
0.0000001
 43
0.0000001
 44
0.0000000001
 40
0.0
 40
0.0
 40
0.0
 40
0.0
 40
0.1286926208
 40
0.2702795078
 40
0.4174383051
 40
0.5617803148
 40
0.6954501289
 40
0.8127134773
 40
0.8646759206
 40
0.9125113962
 40
0.9571388332
 40
1.0
 40
1.0
 40
1.0
 40
1.0
 10
57.6348118399
 20
92.891257278
 30
0.0
 10
57.3931991014
 20
92.751762931
 30
0.0
 10
56.8461644708
 20
92.5260472614
 30
0.0
 10
55.9545934388
 20
92.3477041517
 30
0.0
 10
55.0116125989
 20
92.3215877624
 30
0.0
 10
54.0941620971
 20
92.4505194037
 30
0.0
 10
53.2766378437
 20
92.7235888146
 30
0.0
 10
52.7080312836
 20
93.0696757176
 30
0.0
 10
52.3743679135
 20
93.4045774121
 30
0.0
 10
52.1970650444
 20
93.6652878209
 30
0.0
 10
52.0878989109
 20
93.9403334316
 30
0.0
 10
52.0629787191
 20
94.1307964459
 30
0.0
 10
52.0629914149
 20
94.2237142394
 30
0.0
  0
SPLINE
  5
279
100
AcDbEntity
  8
0
100
AcDbSpline
 62
7
  6
BYLAYER
 70
0
 71
3
 72
17
 73
13
 74
0
 42
0.0000001
 43
0.0000001
 44
0.0000000001
 40
0.0
 40
0.0
 40
0.0
 40
0.0
 40
0.1286926208
 40
0.2702795078
 40
0.4174383051
 40
0.5617803148
 40
0.6954501289
 40
0.8127134773
 40
0.8646759206
 40
0.9125113962
 40
0.9571388332
 40
1.0
 40
1.0
 40
1.0
 40
1.0
 10
100.9191954393
 20
155.4185920915
 30
0.0
 10
100.6775827007
 20
155.2790977445
 30
0.0
 10
100.1305480702
 20
155.0533820749
 30
0.0
 10
99.2389770382
 20
154.8750389652
 30
0.0
 10
98.2959961983
 20
154.8489225759
 30
0.0
 10
97.3785456965
 20
154.9778542171
 30
0.0
 10
96.5610214431
 20
155.2509236281
 30
0.0
 10
95.9924148829
 20
155.5970105311
 30
0.0
 10
95.6587515128
 20
155.9319122256
 30
0.0
 10
95.4814486438
 20
156.1926226344
 30
0.0
 10
95.3722825103
 20
156.4676682451
 30
0.0
 10
95.3473623185
 20
156.6581312594
 30
0.0
 10
95.3473750143
 20
156.7510490529
 30
0.0
  0
SPLINE
  5
27A
100
AcDbEntity
  8
0
100
AcDbSpline
 62
7
  6
BYLAYER
 70
0
 71
3
 72
17
 73
13
 74
0
 42
0.0000001
 43
0.0000001
 44
0.0000000001
 40
0.0
 40
0.0
 40
0.0
 40
0.0
 40
0.1286926208
 40
0.2702795078
 40
0.4174383051
 40
0.5617803148
 40
0.6954501289
 40
0.8127134773
 40
0.8646759206
 40
0.9125113962
 40
0.9571388332
 40
1.0
 40
1.0
 40
1.0
 40
1.0
 10
25.126149336
 20
111.6597177263
 30
0.0
 10
24.8845365975
 20
111.5202233793
 30
0.0
 10
24.3375019669
 20
111.2945077097
 30
0.0
 10
23.4459309349
 20
111.1161646
 30
0.0
 10
22.502950095
 20
111.0900482107
 30
0.0
 10
21.5854995932
 20
111.218979852
 30
0.0
 10
20.7679753398
 20
111.4920492629
 30
0.0
 10
20.1993687797
 20
111.8381361659
 30
0.0
 10
19.8657054096
 20
112.1730378604
 30
0.0
 10
19.6884025405
 20
112.4337482693
 30
0.0
 10
19.579236407
 20
112.7087938799
 30
0.0
 10
19.5543162152
 20
112.8992568942
 30
0.0
 10
19.554328911
 20
112.9921746877
 30
0.0
  0
SPLINE
  5
27B
100
AcDbEntity
  8
0
100
AcDbSpline
 62
7
  6
BYLAYER
 70
0
 71
3
 72
15
 73
11
 74
0
 42
0.0000001
 43
0.0000001
 44
0.0000000001
 40
0.0
 40
0.0
 40
0.0
 40
0.0
 40
0.1141469224
 40
0.2373360365
 40
0.366976904
 40
0.5000005214
 40
0.6330240662
 40
0.7626647219
 40
0.8858535023
 40
1.0
 40
1.0
 40
1.0
 40
1.0
 10
103.1013738761
 20
158.7212379579
 30
0.0
 10
102.7940093857
 20
158.8986909145
 30
0.0
 10
102.1218143901
 20
159.2116570827
 30
0.0
 10
101.0272689039
 20
159.5443972568
 30
0.0
 10
99.8421954628
 20
159.7490858123
 30
0.0
 10
98.6112382275
 20
159.8182277773
 30
0.0
 10
97.3802819763
 20
159.7490799699
 30
0.0
 10
96.1952114423
 20
159.5443857876
 30
0.0
 10
95.1006706683
 20
159.2116404103
 30
0.0
 10
94.4284797907
 20
158.8986708849
 30
0.0
 10
94.1211177234
 20
158.721216372
 30
0.0
  0
SPLINE
  5
27C
100
AcDbEntity
  8
0
100
AcDbSpline
 62
7
  6
BYLAYER
 70
0
 71
3
 72
12
 73
8
 74
0
 42
0.0000001
 43
0.0000001
 44
0.0000000001
 40
0.0
 40
0.0
 40
0.0
 40
0.0
 40
0.2895577051
 40
0.5486551372
 40
0.7816333827
 40
0.8918396705
 40
1.0
 40
1.0
 40
1.0
 40
1.0
 10
19.4056978998
 20
115.5845061156
 30
0.0
 10
19.1269966131
 20
115.4235988131
 30
0.0
 10
18.6214473369
 20
115.0753461391
 30
0.0
 10
18.0173494719
 20
114.4409935537
 30
0.0
 10
17.6931913754
 20
113.8430882631
 30
0.0
 10
17.5667365227
 20
113.3555930308
 30
0.0
 10
17.5458913182
 20
113.1123873077
 30
0.0
 10
17.5458913197
 20
112.9921773153
 30
0.0
  0
SPLINE
  5
27D
100
AcDbEntity
  8
0
100
AcDbSpline
 62
7
  6
BYLAYER
 70
0
 71
3
 72
9
 73
5
 74
0
 42
0.0000001
 43
0.0000001
 44
0.0000000001
 40
0.0
 40
0.0
 40
0.0
 40
0.0
 40
0.2588451597
 40
1.0
 40
1.0
 40
1.0
 40
1.0
 10
128.8119870794
 20
137.241129501
 30
0.0
 10
128.7775501319
 20
137.2212474388
 30
0.0
 10
128.6460425296
 20
137.141842474
 30
0.0
 10
128.5207997171
 20
137.0518262174
 30
0.0
 10
128.4334636605
 20
136.9787784186
 30
0.0
  0
SPLINE
  5
27E
100
AcDbEntity
  8
0
100
AcDbSpline
 62
7
  6
BYLAYER
 70
0
 71
3
 72
9
 73
5
 74
0
 42
0.0000001
 43
0.0000001
 44
0.0000000001
 40
0.0
 40
0.0
 40
0.0
 40
0.0
 40
0.2588451597
 40
1.0
 40
1.0
 40
1.0
 40
1.0
 10
53.0189409761
 20
93.4822551358
 30
0.0
 10
52.9845040286
 20
93.4623730736
 30
0.0
 10
52.8529964263
 20
93.3829681088
 30
0.0
 10
52.7277536138
 20
93.2929518522
 30
0.0
 10
52.6404175572
 20
93.2199040534
 30
0.0
  0
SPLINE
  5
27F
100
AcDbEntity
  8
0
100
AcDbSpline
 62
7
  6
BYLAYER
 70
0
 71
3
 72
9
 73
5
 74
0
 42
0.0000001
 43
0.0000001
 44
0.0000000001
 40
0.0
 40
0.0
 40
0.0
 40
0.0
 40
0.2588451597
 40
1.0
 40
1.0
 40
1.0
 40
1.0
 10
96.3033245755
 20
156.0095899493
 30
0.0
 10
96.268887628
 20
155.9897078871
 30
0.0
 10
96.1373800257
 20
155.9103029223
 30
0.0
 10
96.0121372132
 20
155.8202866657
 30
0.0
 10
95.9248011566
 20
155.7472388669
 30
0.0
  0
SPLINE
  5
280
100
AcDbEntity
  8
0
100
AcDbSpline
 62
7
  6
BYLAYER
 70
0
 71
3
 72
14
 73
10
 74
0
 42
0.0000001
 43
0.0000001
 44
0.0000000001
 40
0.0
 40
0.0
 40
0.0
 40
0.0
 40
0.1123509266
 40
0.2329090622
 40
0.3596573795
 40
0.4903461535
 40
0.7526975883
 40
0.8795098012
 40
1.0
 40
1.0
 40
1.0
 40
1.0
 10
85.8820254127
 20
56.8229748278
 30
0.0
 10
85.6111903944
 20
56.6666090905
 30
0.0
 10
85.023913506
 20
56.3861175002
 30
0.0
 10
84.0710183664
 20
56.0722270526
 30
0.0
 10
83.0386458753
 20
55.8577093739
 30
0.0
 10
81.5973379989
 20
55.7125918968
 30
0.0
 10
80.1399111871
 20
55.7832017077
 30
0.0
 10
78.7490040347
 20
56.0722032287
 30
0.0
 10
78.0931616134
 20
56.2881266705
 30
0.0
 10
77.7822192855
 20
56.4138268632
 30
0.0
  0
SPLINE
  5
281
100
AcDbEntity
  8
0
100
AcDbSpline
 62
7
  6
BYLAYER
 70
0
 71
3
 72
9
 73
5
 74
0
 42
0.0000001
 43
0.0000001
 44
0.0000000001
 40
0.0
 40
0.0
 40
0.0
 40
0.0
 40
0.2588451597
 40
1.0
 40
1.0
 40
1.0
 40
1.0
 10
20.5102784722
 20
112.2507155841
 30
0.0
 10
20.4758415247
 20
112.2308335219
 30
0.0
 10
20.3443339224
 20
112.1514285571
 30
0.0
 10
20.2190911099
 20
112.0614123005
 30
0.0
 10
20.1317550533
 20
111.9883645018
 30
0.0
  0
SPLINE
  5
282
100
AcDbEntity
  8
0
100
AcDbSpline
 62
7
  6
BYLAYER
 70
0
 71
3
 72
15
 73
11
 74
0
 42
0.0000001
 43
0.0000001
 44
0.0000000001
 40
0.0
 40
0.0
 40
0.0
 40
0.0
 40
0.1141464977
 40
0.2373352781
 40
0.3669759338
 40
0.4999994786
 40
0.633023096
 40
0.7626639635
 40
0.8858530776
 40
1.0
 40
1.0
 40
1.0
 40
1.0
 10
59.8170186919
 20
90.1796308553
 30
0.0
 10
59.5096566247
 20
90.0021763424
 30
0.0
 10
58.837465747
 20
89.689206817
 30
0.0
 10
57.7429249731
 20
89.3564614397
 30
0.0
 10
56.5578544391
 20
89.1517672574
 30
0.0
 10
55.3268981879
 20
89.08261945
 30
0.0
 10
54.0959409526
 20
89.1517614151
 30
0.0
 10
52.9108675115
 20
89.3564499705
 30
0.0
 10
51.8163220253
 20
89.6891901447
 30
0.0
 10
51.1441270297
 20
90.0021563128
 30
0.0
 10
50.8367625392
 20
90.1796092694
 30
0.0
  0
SPLINE
  5
283
100
AcDbEntity
  8
0
100
AcDbSpline
 62
7
  6
BYLAYER
 70
0
 71
3
 72
12
 73
8
 74
0
 42
0.0000001
 43
0.0000001
 44
0.0000000001
 40
0.0
 40
0.0
 40
0.0
 40
0.0
 40
0.2895581804
 40
0.5486557817
 40
0.7816338327
 40
0.891839914
 40
1.0
 40
1.0
 40
1.0
 40
1.0
 10
19.4057352882
 20
108.3259107895
 30
0.0
 10
19.1270287896
 20
108.4868184214
 30
0.0
 10
18.6214699195
 20
108.8350724309
 30
0.0
 10
18.0173597836
 20
109.4694296984
 30
0.0
 10
17.6931945798
 20
110.0673410054
 30
0.0
 10
17.5667369771
 20
110.5548415363
 30
0.0
 10
17.5458913213
 20
110.7980499038
 30
0.0
 10
17.5458913197
 20
110.9182611758
 30
0.0
  0
SPLINE
  5
284
100
AcDbEntity
  8
0
100
AcDbSpline
 62
7
  6
BYLAYER
 70
0
 71
3
 72
13
 73
9
 74
0
 42
0.0000001
 43
0.0000001
 44
0.0000000001
 40
0.0
 40
0.0
 40
0.0
 40
0.0
 40
0.114227348
 40
0.2375641169
 40
0.5000112722
 40
0.7624638468
 40
0.8857438312
 40
1.0
 40
1.0
 40
1.0
 40
1.0
 10
123.8459782396
 20
110.3478264933
 30
0.0
 10
123.8459782396
 20
110.525247016
 30
0.0
 10
123.8785269811
 20
110.8946046849
 30
0.0
 10
124.0549654932
 20
111.6528345986
 30
0.0
 10
124.4650153851
 20
112.5828457147
 30
0.0
 10
125.0654059268
 20
113.4028248642
 30
0.0
 10
125.6337164692
 20
113.9348154007
 30
0.0
 10
125.9373041264
 20
114.1476276456
 30
0.0
 10
126.090994127
 20
114.2363593314
 30
0.0
  0
SPLINE
  5
285
100
AcDbEntity
  8
0
100
AcDbSpline
 62
7
  6
BYLAYER
 70
0
 71
3
 72
15
 73
11
 74
0
 42
0.0000001
 43
0.0000001
 44
0.0000000001
 40
0.0
 40
0.0
 40
0.0
 40
0.0
 40
0.1141462769
 40
0.2373347432
 40
0.3669750848
 40
0.4999983967
 40
0.6330219316
 40
0.7626629245
 40
0.8858524171
 40
1.0
 40
1.0
 40
1.0
 40
1.0
 10
125.7318241576
 20
95.031936979
 30
0.0
 10
125.9777136413
 20
95.1739004914
 30
0.0
 10
126.4634224839
 20
95.5144181173
 30
0.0
 10
127.1317714427
 20
96.1396388876
 30
0.0
 10
127.7476141789
 20
96.8788025167
 30
0.0
 10
128.2879003541
 20
97.7039767636
 30
0.0
 10
128.7323755351
 20
98.5844690579
 30
0.0
 10
129.0645865225
 20
99.4873921077
 30
0.0
 10
129.2718685312
 20
100.3788173702
 30
0.0
 10
129.3239116664
 20
100.9697180432
 30
0.0
 10
129.3239116665
 20
101.2536495872
 30
0.0
  0
SPLINE
  5
286
100
AcDbEntity
  8
0
100
AcDbSpline
 62
7
  6
BYLAYER
 70
0
 71
3
 72
17
 73
13
 74
0
 42
0.0000001
 43
0.0000001
 44
0.0000000001
 40
0.0
 40
0.0
 40
0.0
 40
0.0
 40
0.1286926208
 40
0.2702795078
 40
0.4174383051
 40
0.5617803148
 40
0.6954501289
 40
0.8127134773
 40
0.8646759206
 40
0.9125113962
 40
0.9571388332
 40
1.0
 40
1.0
 40
1.0
 40
1.0
 10
128.8119870794
 20
139.3150456405
 30
0.0
 10
129.0535998179
 20
139.4545399875
 30
0.0
 10
129.6006344485
 20
139.6802556571
 30
0.0
 10
130.4922054805
 20
139.8585987668
 30
0.0
 10
131.4351863204
 20
139.8847151561
 30
0.0
 10
132.3526368222
 20
139.7557835148
 30
0.0
 10
133.1701610756
 20
139.4827141039
 30
0.0
 10
133.7387676357
 20
139.1366272009
 30
0.0
 10
134.0724310058
 20
138.8017255064
 30
0.0
 10
134.2497338749
 20
138.5410150976
 30
0.0
 10
134.3589000084
 20
138.2659694869
 30
0.0
 10
134.3838202002
 20
138.0755064726
 30
0.0
 10
134.3838075044
 20
137.9825886791
 30
0.0
  0
SPLINE
  5
287
100
AcDbEntity
  8
0
100
AcDbSpline
 62
7
  6
BYLAYER
 70
0
 71
3
 72
11
 73
7
 74
0
 42
0.0000001
 43
0.0000001
 44
0.0000000001
 40
0.0
 40
0.0
 40
0.0
 40
0.0
 40
0.289777178
 40
0.5490714025
 40
0.7822268831
 40
1.0
 40
1.0
 40
1.0
 40
1.0
 10
75.6222036455
 20
82.2778526864
 30
0.0
 10
75.6222036456
 20
82.0203907506
 30
0.0
 10
75.6611325439
 20
81.5308757716
 30
0.0
 10
75.8595181765
 20
80.858347344
 30
0.0
 10
76.1932130913
 20
80.3126212744
 30
0.0
 10
76.5067867938
 20
80.0490735405
 30
0.0
 10
76.6743529073
 20
79.9523313796
 30
0.0
  0
SPLINE
  5
288
100
AcDbEntity
  8
0
100
AcDbSpline
 62
7
  6
BYLAYER
 70
0
 71
3
 72
19
 73
15
 74
0
 42
0.0000001
 43
0.0000001
 44
0.0000000001
 40
0.0
 40
0.0
 40
0.0
 40
0.0
 40
0.1363149004
 40
0.287119037
 40
0.4407422329
 40
0.584734674
 40
0.6500205494
 40
0.7096949794
 40
0.7636672631
 40
0.8126422287
 40
0.858254544
 40
0.9029637347
 40
0.9494693882
 40
1.0
 40
1.0
 40
1.0
 40
1.0
 10
81.1001370724
 20
85.6686509035
 30
0.0
 10
81.1001370724
 20
85.339483802
 30
0.0
 10
80.9890771837
 20
84.6455116673
 30
0.0
 10
80.5912025836
 20
83.6512386662
 30
0.0
 10
79.9958324982
 20
82.7385708463
 30
0.0
 10
79.3703807321
 20
82.1121509016
 30
0.0
 10
78.8280148518
 20
81.751233434
 30
0.0
 10
78.4338371982
 20
81.5692433106
 30
0.0
 10
78.050195124
 20
81.4731858852
 30
0.0
 10
77.6876074741
 20
81.4678975272
 30
0.0
 10
77.3581250965
 20
81.5573387608
 30
0.0
 10
77.0767422277
 20
81.7406658104
 30
0.0
 10
76.8560875894
 20
82.0082523137
 30
0.0
 10
76.7583242394
 20
82.224049295
 30
0.0
 10
76.7195352995
 20
82.3397388251
 30
0.0
  0
SPLINE
  5
289
100
AcDbEntity
  8
0
100
AcDbSpline
 62
7
  6
BYLAYER
 70
0
 71
3
 72
9
 73
5
 74
0
 42
0.0000001
 43
0.0000001
 44
0.0000000001
 40
0.0
 40
0.0
 40
0.0
 40
0.0
 40
0.234170239
 40
1.0
 40
1.0
 40
1.0
 40
1.0
 10
76.7195352995
 20
82.3397388251
 30
0.0
 10
76.7010108126
 20
82.394988832
 30
0.0
 10
76.6336048994
 20
82.6348420389
 30
0.0
 10
76.6100277061
 20
82.8857252893
 30
0.0
 10
76.6100277061
 20
83.0763005264
 30
0.0
  0
SPLINE
  5
28A
100
AcDbEntity
  8
0
100
AcDbSpline
 62
7
  6
BYLAYER
 70
0
 71
3
 72
11
 73
7
 74
0
 42
0.0000001
 43
0.0000001
 44
0.0000000001
 40
0.0
 40
0.0
 40
0.0
 40
0.0
 40
0.2177732482
 40
0.4509008352
 40
0.7103635849
 40
1.0
 40
1.0
 40
1.0
 40
1.0
 10
79.6131749286
 20
86.8075581996
 30
0.0
 10
79.6952200616
 20
86.7601443206
 30
0.0
 10
79.8488445006
 20
86.6311740232
 30
0.0
 10
80.0122899317
 20
86.3638127575
 30
0.0
 10
80.1093206186
 20
86.0344171597
 30
0.0
 10
80.1284733601
 20
85.794678651
 30
0.0
 10
80.1284733601
 20
85.6686485679
 30
0.0
  0
SPLINE
  5
28B
100
AcDbEntity
  8
0
100
AcDbSpline
 62
7
  6
BYLAYER
 70
0
 71
3
 72
9
 73
5
 74
0
 42
0.0000001
 43
0.0000001
 44
0.0000000001
 40
0.0
 40
0.0
 40
0.0
 40
0.0
 40
0.2667315975
 40
1.0
 40
1.0
 40
1.0
 40
1.0
 10
78.8550435934
 20
86.9648333645
 30
0.0
 10
78.9121571072
 20
86.9978073922
 30
0.0
 10
79.1301711708
 20
87.1142198407
 30
0.0
 10
79.3655103448
 20
87.2008530572
 30
0.0
 10
79.5431021089
 20
87.2373285226
 30
0.0
  0
SPLINE
  5
28C
100
AcDbEntity
  8
0
100
AcDbSpline
 62
7
  6
BYLAYER
 70
0
 71
3
 72
15
 73
11
 74
0
 42
0.0000001
 43
0.0000001
 44
0.0000000001
 40
0.0
 40
0.0
 40
0.0
 40
0.0
 40
0.1265830078
 40
0.2437570426
 40
0.3556470738
 40
0.467488172
 40
0.584492064
 40
0.7108419202
 40
0.8491668047
 40
1.0
 40
1.0
 40
1.0
 40
1.0
 10
79.5431021089
 20
87.2373285226
 30
0.0
 10
79.6502660933
 20
87.2593388687
 30
0.0
 10
79.8614103544
 20
87.2830094908
 30
0.0
 10
80.1696651375
 20
87.2464454515
 30
0.0
 10
80.4466218151
 20
87.1354864141
 30
0.0
 10
80.6821287899
 20
86.9525847859
 30
0.0
 10
80.8690903951
 20
86.7051581754
 30
0.0
 10
81.0036167661
 20
86.4012709938
 30
0.0
 10
81.0837944465
 20
86.0494192063
 30
0.0
 10
81.1001370724
 20
85.79901042
 30
0.0
 10
81.1001370724
 20
85.6686509035
 30
0.0
  0
SPLINE
  5
28D
100
AcDbEntity
  8
0
100
AcDbSpline
 62
7
  6
BYLAYER
 70
0
 71
3
 72
17
 73
13
 74
0
 42
0.0000001
 43
0.0000001
 44
0.0000000001
 40
0.0
 40
0.0
 40
0.0
 40
0.0
 40
0.1286926208
 40
0.2702795078
 40
0.4174383051
 40
0.5617803148
 40
0.6954501289
 40
0.8127134773
 40
0.8646759206
 40
0.9125113962
 40
0.9571388332
 40
1.0
 40
1.0
 40
1.0
 40
1.0
 10
53.0189409761
 20
95.5561712753
 30
0.0
 10
53.2605537146
 20
95.6956656223
 30
0.0
 10
53.8075883452
 20
95.921381292
 30
0.0
 10
54.6991593772
 20
96.0997244016
 30
0.0
 10
55.6421402171
 20
96.125840791
 30
0.0
 10
56.5595907189
 20
95.9969091497
 30
0.0
 10
57.3771149723
 20
95.7238397387
 30
0.0
 10
57.9457215324
 20
95.3777528357
 30
0.0
 10
58.2793849025
 20
95.0428511412
 30
0.0
 10
58.4566877716
 20
94.7821407324
 30
0.0
 10
58.5658539051
 20
94.5070951217
 30
0.0
 10
58.5907740969
 20
94.3166321075
 30
0.0
 10
58.5907614011
 20
94.2237143139
 30
0.0
  0
SPLINE
  5
28E
100
AcDbEntity
  8
0
100
AcDbSpline
 62
7
  6
BYLAYER
 70
0
 71
3
 72
11
 73
7
 74
0
 42
0.0000001
 43
0.0000001
 44
0.0000000001
 40
0.0
 40
0.0
 40
0.0
 40
0.0
 40
0.2505349504
 40
0.5107834929
 40
0.7653918695
 40
1.0
 40
1.0
 40
1.0
 40
1.0
 10
52.7876888009
 20
55.8418565676
 30
0.0
 10
51.9721381647
 20
55.589846635
 30
0.0
 10
50.2534059412
 20
55.2483243281
 30
0.0
 10
47.6343371209
 20
55.1889181177
 30
0.0
 10
45.0965714253
 20
55.5660594456
 30
0.0
 10
43.5086196382
 20
56.1206784759
 30
0.0
 10
42.7927699809
 20
56.4763407638
 30
0.0
  0
SPLINE
  5
28F
100
AcDbEntity
  8
0
100
AcDbSpline
 62
7
  6
BYLAYER
 70
0
 71
3
 72
17
 73
13
 74
0
 42
0.0000001
 43
0.0000001
 44
0.0000000001
 40
0.0
 40
0.0
 40
0.0
 40
0.0
 40
0.1286839723
 40
0.2702731138
 40
0.4174311221
 40
0.5617769804
 40
0.6954476236
 40
0.8127121074
 40
0.864676385
 40
0.9125098108
 40
0.9571396749
 40
1.0
 40
1.0
 40
1.0
 40
1.0
 10
80.1284733601
 20
85.6686485679
 30
0.0
 10
80.1284733601
 20
85.4560007703
 30
0.0
 10
80.0689858012
 20
85.0088703528
 30
0.0
 10
79.846954181
 20
84.3523406307
 30
0.0
 10
79.5047913571
 20
83.7198850882
 30
0.0
 10
79.0700215888
 20
83.163370206
 30
0.0
 10
78.5781676765
 20
82.7277614079
 30
0.0
 10
78.1329808674
 20
82.4843193843
 30
0.0
 10
77.7847282781
 20
82.3916966293
 30
0.0
 10
77.545047475
 20
82.3740380308
 30
0.0
 10
77.321867545
 20
82.4067604385
 30
0.0
 10
77.1866444898
 20
82.4629349697
 30
0.0
 10
77.1253220921
 20
82.4983731808
 30
0.0
  0
SPLINE
  5
290
100
AcDbEntity
  8
0
100
AcDbSpline
 62
7
  6
BYLAYER
 70
0
 71
3
 72
17
 73
13
 74
0
 42
0.0000001
 43
0.0000001
 44
0.0000000001
 40
0.0
 40
0.0
 40
0.0
 40
0.0
 40
0.1286926208
 40
0.2702795078
 40
0.4174383051
 40
0.5617803148
 40
0.6954501289
 40
0.8127134773
 40
0.8646759206
 40
0.9125113962
 40
0.9571388332
 40
1.0
 40
1.0
 40
1.0
 40
1.0
 10
96.3033245755
 20
158.0835060888
 30
0.0
 10
96.544937314
 20
158.2230004358
 30
0.0
 10
97.0919719446
 20
158.4487161055
 30
0.0
 10
97.9835429766
 20
158.6270592151
 30
0.0
 10
98.9265238165
 20
158.6531756045
 30
0.0
 10
99.8439743183
 20
158.5242439632
 30
0.0
 10
100.6614985717
 20
158.2511745522
 30
0.0
 10
101.2301051318
 20
157.9050876492
 30
0.0
 10
101.5637685019
 20
157.5701859547
 30
0.0
 10
101.741071371
 20
157.3094755459
 30
0.0
 10
101.8502375044
 20
157.0344299352
 30
0.0
 10
101.8751576963
 20
156.8439669209
 30
0.0
 10
101.8751450005
 20
156.7510491274
 30
0.0
  0
SPLINE
  5
291
100
AcDbEntity
  8
0
100
AcDbSpline
 62
7
  6
BYLAYER
 70
0
 71
3
 72
17
 73
13
 74
0
 42
0.0000001
 43
0.0000001
 44
0.0000000001
 40
0.0
 40
0.0
 40
0.0
 40
0.0
 40
0.1286926208
 40
0.2702795078
 40
0.4174383051
 40
0.5617803148
 40
0.6954501289
 40
0.8127134773
 40
0.8646759206
 40
0.9125113962
 40
0.9571388332
 40
1.0
 40
1.0
 40
1.0
 40
1.0
 10
20.5102784722
 20
114.3246317237
 30
0.0
 10
20.7518912107
 20
114.4641260706
 30
0.0
 10
21.2989258413
 20
114.6898417403
 30
0.0
 10
22.1904968733
 20
114.86818485
 30
0.0
 10
23.1334777132
 20
114.8943012393
 30
0.0
 10
24.050928215
 20
114.765369598
 30
0.0
 10
24.8684524684
 20
114.492300187
 30
0.0
 10
25.4370590285
 20
114.146213284
 30
0.0
 10
25.7707223986
 20
113.8113115895
 30
0.0
 10
25.9480252677
 20
113.5506011807
 30
0.0
 10
26.0571914012
 20
113.27555557
 30
0.0
 10
26.082111593
 20
113.0850925558
 30
0.0
 10
26.0820988972
 20
112.9921747622
 30
0.0
  0
SPLINE
  5
292
100
AcDbEntity
  8
0
100
AcDbSpline
 62
7
  6
BYLAYER
 70
0
 71
3
 72
11
 73
7
 74
0
 42
0.0000001
 43
0.0000001
 44
0.0000000001
 40
0.0
 40
0.0
 40
0.0
 40
0.0
 40
0.2177732482
 40
0.4509008352
 40
0.7103635849
 40
1.0
 40
1.0
 40
1.0
 40
1.0
 10
126.8491254622
 20
114.0790841665
 30
0.0
 10
126.9311705952
 20
114.0316702875
 30
0.0
 10
127.0847950341
 20
113.9026999902
 30
0.0
 10
127.2482404652
 20
113.6353387244
 30
0.0
 10
127.3452711522
 20
113.3059431266
 30
0.0
 10
127.3644238936
 20
113.066204618
 30
0.0
 10
127.3644238936
 20
112.9401745348
 30
0.0
  0
SPLINE
  5
293
100
AcDbEntity
  8
0
100
AcDbSpline
 62
7
  6
BYLAYER
 70
0
 71
3
 72
9
 73
5
 74
0
 42
0.0000001
 43
0.0000001
 44
0.0000000001
 40
0.0
 40
0.0
 40
0.0
 40
0.0
 40
0.2667315975
 40
1.0
 40
1.0
 40
1.0
 40
1.0
 10
126.090994127
 20
114.2363593314
 30
0.0
 10
126.1481076407
 20
114.2693333592
 30
0.0
 10
126.3661217043
 20
114.3857458076
 30
0.0
 10
126.6014608784
 20
114.4723790242
 30
0.0
 10
126.7790526425
 20
114.5088544895
 30
0.0
  0
SPLINE
  5
294
100
AcDbEntity
  8
0
100
AcDbSpline
 62
7
  6
BYLAYER
 70
0
 71
3
 72
15
 73
11
 74
0
 42
0.0000001
 43
0.0000001
 44
0.0000000001
 40
0.0
 40
0.0
 40
0.0
 40
0.0
 40
0.1265830078
 40
0.2437570426
 40
0.3556470738
 40
0.467488172
 40
0.584492064
 40
0.7108419202
 40
0.8491668047
 40
1.0
 40
1.0
 40
1.0
 40
1.0
 10
126.7790526425
 20
114.5088544895
 30
0.0
 10
126.8862166268
 20
114.5308648356
 30
0.0
 10
127.0973608879
 20
114.5545354577
 30
0.0
 10
127.405615671
 20
114.5179714185
 30
0.0
 10
127.6825723486
 20
114.407012381
 30
0.0
 10
127.9180793235
 20
114.2241107529
 30
0.0
 10
128.1050409287
 20
113.9766841424
 30
0.0
 10
128.2395672997
 20
113.6727969607
 30
0.0
 10
128.3197449801
 20
113.3209451732
 30
0.0
 10
128.3360876059
 20
113.0705363869
 30
0.0
 10
128.3360876059
 20
112.9401768704
 30
0.0
  0
SPLINE
  5
295
100
AcDbEntity
  8
0
100
AcDbSpline
 62
7
  6
BYLAYER
 70
0
 71
3
 72
11
 73
7
 74
0
 42
0.0000001
 43
0.0000001
 44
0.0000000001
 40
0.0
 40
0.0
 40
0.0
 40
0.0
 40
0.2177827477
 40
0.4509152641
 40
0.7103063952
 40
1.0
 40
1.0
 40
1.0
 40
1.0
 10
19.554328911
 20
112.9921746877
 30
0.0
 10
19.5543458969
 20
113.1164906287
 30
0.0
 10
19.600259649
 20
113.3756073716
 30
0.0
 10
19.7967062098
 20
113.736641911
 30
0.0
 10
20.1072418059
 20
114.062990164
 30
0.0
 10
20.3670684076
 20
114.2419498479
 30
0.0
 10
20.5102784722
 20
114.3246317237
 30
0.0
  0
SPLINE
  5
296
100
AcDbEntity
  8
0
100
AcDbSpline
 62
7
  6
BYLAYER
 70
0
 71
3
 72
12
 73
8
 74
0
 42
0.0000001
 43
0.0000001
 44
0.0000000001
 40
0.0
 40
0.0
 40
0.0
 40
0.0
 40
0.108160086
 40
0.2183661673
 40
0.4513442183
 40
0.7104418196
 40
1.0
 40
1.0
 40
1.0
 40
1.0
 10
17.5458913197
 20
112.9921773153
 30
0.0
 10
17.5458913213
 20
112.8719660434
 30
0.0
 10
17.5667369771
 20
112.6287576758
 30
0.0
 10
17.6931945798
 20
112.141257145
 30
0.0
 10
18.0173597836
 20
111.5433458379
 30
0.0
 10
18.6214699195
 20
110.9089885704
 30
0.0
 10
19.1270287896
 20
110.5607345609
 30
0.0
 10
19.4057352882
 20
110.399826929
 30
0.0
  0
SPLINE
  5
297
100
AcDbEntity
  8
0
100
AcDbSpline
 62
7
  6
BYLAYER
 70
0
 71
3
 72
15
 73
11
 74
0
 42
0.0000001
 43
0.0000001
 44
0.0000000001
 40
0.0
 40
0.0
 40
0.0
 40
0.0
 40
0.1141469224
 40
0.2373360365
 40
0.366976904
 40
0.5000005214
 40
0.6330240662
 40
0.7626647219
 40
0.8858535023
 40
1.0
 40
1.0
 40
1.0
 40
1.0
 10
50.8367625392
 20
92.2535254089
 30
0.0
 10
51.1441270297
 20
92.0760724523
 30
0.0
 10
51.8163220253
 20
91.7631062842
 30
0.0
 10
52.9108675115
 20
91.43036611
 30
0.0
 10
54.0959409526
 20
91.2256775546
 30
0.0
 10
55.3268981879
 20
91.1565355895
 30
0.0
 10
56.5578544391
 20
91.225683397
 30
0.0
 10
57.7429249731
 20
91.4303775793
 30
0.0
 10
58.837465747
 20
91.7631229565
 30
0.0
 10
59.5096566247
 20
92.0760924819
 30
0.0
 10
59.8170186919
 20
92.2535469948
 30
0.0
  0
SPLINE
  5
298
100
AcDbEntity
  8
0
100
AcDbSpline
 62
7
  6
BYLAYER
 70
0
 71
3
 72
12
 73
8
 74
0
 42
0.0000001
 43
0.0000001
 44
0.0000000001
 40
0.0
 40
0.0
 40
0.0
 40
0.0
 40
0.2895577051
 40
0.5486551372
 40
0.7816333827
 40
0.8918396705
 40
1.0
 40
1.0
 40
1.0
 40
1.0
 10
134.5324385156
 20
135.3902572512
 30
0.0
 10
134.8111398022
 20
135.5511645537
 30
0.0
 10
135.3166890785
 20
135.8994172278
 30
0.0
 10
135.9207869434
 20
136.5337698131
 30
0.0
 10
136.24494504
 20
137.1316751037
 30
0.0
 10
136.3713998926
 20
137.619170336
 30
0.0
 10
136.3922450972
 20
137.8623760591
 30
0.0
 10
136.3922450957
 20
137.9825860515
 30
0.0
  0
SPLINE
  5
299
100
AcDbEntity
  8
0
100
AcDbSpline
 62
7
  6
BYLAYER
 70
0
 71
3
 72
11
 73
7
 74
0
 42
0.0000001
 43
0.0000001
 44
0.0000000001
 40
0.0
 40
0.0
 40
0.0
 40
0.0
 40
0.2177827477
 40
0.4509152641
 40
0.7103063952
 40
1.0
 40
1.0
 40
1.0
 40
1.0
 10
52.0629914149
 20
94.2237142394
 30
0.0
 10
52.0630084008
 20
94.3480301804
 30
0.0
 10
52.1089221529
 20
94.6071469233
 30
0.0
 10
52.3053687137
 20
94.9681814627
 30
0.0
 10
52.6159043098
 20
95.2945297157
 30
0.0
 10
52.8757309115
 20
95.4734893996
 30
0.0
 10
53.0189409761
 20
95.5561712753
 30
0.0
  0
SPLINE
  5
29A
100
AcDbEntity
  8
0
100
AcDbSpline
 62
7
  6
BYLAYER
 70
0
 71
3
 72
11
 73
7
 74
0
 42
0.0000001
 43
0.0000001
 44
0.0000000001
 40
0.0
 40
0.0
 40
0.0
 40
0.0
 40
0.2177827477
 40
0.4509152641
 40
0.7103063952
 40
1.0
 40
1.0
 40
1.0
 40
1.0
 10
127.8560375182
 20
137.9825886046
 30
0.0
 10
127.8560545041
 20
138.1069045456
 30
0.0
 10
127.9019682562
 20
138.3660212885
 30
0.0
 10
128.0984148169
 20
138.7270558279
 30
0.0
 10
128.4089504131
 20
139.0534040809
 30
0.0
 10
128.6687770148
 20
139.2323637647
 30
0.0
 10
128.8119870794
 20
139.3150456405
 30
0.0
  0
SPLINE
  5
29B
100
AcDbEntity
  8
0
100
AcDbSpline
 62
7
  6
BYLAYER
 70
0
 71
3
 72
11
 73
7
 74
0
 42
0.0000001
 43
0.0000001
 44
0.0000000001
 40
0.0
 40
0.0
 40
0.0
 40
0.0
 40
0.2177827477
 40
0.4509152641
 40
0.7103063952
 40
1.0
 40
1.0
 40
1.0
 40
1.0
 10
95.3473750143
 20
156.7510490529
 30
0.0
 10
95.3473920002
 20
156.8753649939
 30
0.0
 10
95.3933057523
 20
157.1344817368
 30
0.0
 10
95.589752313
 20
157.4955162762
 30
0.0
 10
95.9002879092
 20
157.8218645292
 30
0.0
 10
96.1601145109
 20
158.0008242131
 30
0.0
 10
96.3033245755
 20
158.0835060888
 30
0.0
  0
SPLINE
  5
29C
100
AcDbEntity
  8
0
100
AcDbSpline
 62
7
  6
BYLAYER
 70
0
 71
3
 72
15
 73
11
 74
0
 42
0.0000001
 43
0.0000001
 44
0.0000000001
 40
0.0
 40
0.0
 40
0.0
 40
0.0
 40
0.1196808371
 40
0.2459746526
 40
0.3765101813
 40
0.5086272846
 40
0.639571284
 40
0.7666530319
 40
0.8874626625
 40
1.0
 40
1.0
 40
1.0
 40
1.0
 10
41.8181164462
 20
70.6056286941
 30
0.0
 10
42.3810601765
 20
70.3664856196
 30
0.0
 10
43.5727189249
 20
69.9541773627
 30
0.0
 10
45.4554641997
 20
69.5397448554
 30
0.0
 10
47.4348715831
 20
69.3215462178
 30
0.0
 10
49.4497579825
 20
69.3063549681
 30
0.0
 10
51.4382328894
 20
69.4946750803
 30
0.0
 10
53.3394845011
 20
69.8806865094
 30
0.0
 10
55.0947557831
 20
70.452631338
 30
0.0
 10
56.1757667019
 20
70.9673155316
 30
0.0
 10
56.6738411711
 20
71.2548772439
 30
0.0
  0
SPLINE
  5
29D
100
AcDbEntity
  8
0
100
AcDbSpline
 62
7
  6
BYLAYER
 70
0
 71
3
 72
11
 73
7
 74
0
 42
0.0000001
 43
0.0000001
 44
0.0000000001
 40
0.0
 40
0.0
 40
0.0
 40
0.0
 40
0.2398396358
 40
0.4926793288
 40
0.7493054002
 40
1.0
 40
1.0
 40
1.0
 40
1.0
 10
54.0867576381
 20
70.987290871
 30
0.0
 10
53.3784372166
 20
70.7243255741
 30
0.0
 10
51.8741706709
 20
70.3118531496
 30
0.0
 10
49.523856549
 20
70.0250644393
 30
0.0
 10
47.1223187167
 20
70.0614397417
 30
0.0
 10
45.5363296742
 20
70.3063399277
 30
0.0
 10
44.767434754
 20
70.4866527439
 30
0.0
  0
SPLINE
  5
29E
100
AcDbEntity
  8
0
100
AcDbSpline
 62
7
  6
BYLAYER
 70
0
 71
3
 72
17
 73
13
 74
0
 42
0.0000001
 43
0.0000001
 44
0.0000000001
 40
0.0
 40
0.0
 40
0.0
 40
0.0
 40
0.1286839723
 40
0.2702731138
 40
0.4174311221
 40
0.5617769804
 40
0.6954476236
 40
0.8127121074
 40
0.864676385
 40
0.9125098108
 40
0.9571396749
 40
1.0
 40
1.0
 40
1.0
 40
1.0
 10
127.3644238936
 20
112.9401745348
 30
0.0
 10
127.3644238936
 20
112.7275267372
 30
0.0
 10
127.3049363348
 20
112.2803963197
 30
0.0
 10
127.0829047146
 20
111.6238665976
 30
0.0
 10
126.7407418906
 20
110.9914110552
 30
0.0
 10
126.3059721223
 20
110.4348961729
 30
0.0
 10
125.81411821
 20
109.9992873749
 30
0.0
 10
125.368931401
 20
109.7558453512
 30
0.0
 10
125.0206788116
 20
109.6632225962
 30
0.0
 10
124.7809980086
 20
109.6455639977
 30
0.0
 10
124.5578180786
 20
109.6782864054
 30
0.0
 10
124.4225950233
 20
109.7344609366
 30
0.0
 10
124.3612726257
 20
109.7698991477
 30
0.0
  0
SPLINE
  5
29F
100
AcDbEntity
  8
0
100
AcDbSpline
 62
7
  6
BYLAYER
 70
0
 71
3
 72
19
 73
15
 74
0
 42
0.0000001
 43
0.0000001
 44
0.0000000001
 40
0.0
 40
0.0
 40
0.0
 40
0.0
 40
0.1363149004
 40
0.287119037
 40
0.4407422329
 40
0.584734674
 40
0.6500205494
 40
0.7096949794
 40
0.7636672631
 40
0.8126422287
 40
0.858254544
 40
0.9029637347
 40
0.9494693882
 40
1.0
 40
1.0
 40
1.0
 40
1.0
 10
128.3360876059
 20
112.9401768704
 30
0.0
 10
128.3360876059
 20
112.6110097689
 30
0.0
 10
128.2250277173
 20
111.9170376342
 30
0.0
 10
127.8271531172
 20
110.9227646331
 30
0.0
 10
127.2317830317
 20
110.0100968133
 30
0.0
 10
126.6063312657
 20
109.3836768685
 30
0.0
 10
126.0639653853
 20
109.0227594009
 30
0.0
 10
125.6697877318
 20
108.8407692776
 30
0.0
 10
125.2861456575
 20
108.7447118521
 30
0.0
 10
124.9235580077
 20
108.7394234942
 30
0.0
 10
124.5940756301
 20
108.8288647277
 30
0.0
 10
124.3126927612
 20
109.0121917774
 30
0.0
 10
124.092038123
 20
109.2797782806
 30
0.0
 10
123.9942747729
 20
109.4955752619
 30
0.0
 10
123.9554858331
 20
109.611264792
 30
0.0
  0
SPLINE
  5
2A0
100
AcDbEntity
  8
0
100
AcDbSpline
 62
7
  6
BYLAYER
 70
0
 71
3
 72
9
 73
5
 74
0
 42
0.0000001
 43
0.0000001
 44
0.0000000001
 40
0.0
 40
0.0
 40
0.0
 40
0.0
 40
0.234170239
 40
1.0
 40
1.0
 40
1.0
 40
1.0
 10
123.9554858331
 20
109.611264792
 30
0.0
 10
123.9369613461
 20
109.6665147989
 30
0.0
 10
123.8695554329
 20
109.9063680058
 30
0.0
 10
123.8459782396
 20
110.1572512562
 30
0.0
 10
123.8459782396
 20
110.3478264933
 30
0.0
  0
SPLINE
  5
2A1
100
AcDbEntity
  8
0
100
AcDbSpline
 62
7
  6
BYLAYER
 70
0
 71
3
 72
9
 73
5
 74
0
 42
0.0000001
 43
0.0000001
 44
0.0000000001
 40
0.0
 40
0.0
 40
0.0
 40
0.0
 40
0.263820867
 40
1.0
 40
1.0
 40
1.0
 40
1.0
 10
56.6738411711
 20
71.2548772439
 30
0.0
 10
56.847317678
 20
71.3550333541
 30
0.0
 10
57.4939313928
 20
71.7527647803
 30
0.0
 10
58.0959165882
 20
72.2270984651
 30
0.0
 10
58.4910985719
 20
72.622410778
 30
0.0
  0
ELLIPSE
  5
2A2
100
AcDbEntity
  8
0
100
AcDbEllipse
 62
7
  6
BYLAYER
 10
76.2221493762
 20
86.0792077452
 30
0.0
 11
5.0801255878
 21
2.2830132413
 31
0.0
 40
0.7133435069
 41
2.8313661658
 42
3.6167770879
  0
ENDSEC
  0
SECTION
  2
OBJECTS
  0
DICTIONARY
  5
C
100
AcDbDictionary
280
0
281
1
  3
ACAD_GROUP
350
D
  3
ACAD_MLINESTYLE
350
17
  3
ACAD_LAYOUT
350
1A
  3
ACAD_PLOTSETTINGS
350
19
  3
ACAD_PLOTSTYLENAME
350
E
  0
DICTIONARY
  5
D
102
{ACAD_REACTORS
330
C
102
}
100
AcDbDictionary
280
0
281
1
  0
ACDBDICTIONARYWDFLT
  5
E
102
{ACAD_REACTORS
330
C
102
}
100
AcDbDictionary
281
1
  3
Normal
350
F
100
AcDbDictionaryWithDefault
340
F
  0
DICTIONARY
  5
17
102
{ACAD_REACTORS
330
C
102
}
100
AcDbDictionary
280
0
281
1
  3
Standard
350
18
  0
DICTIONARY
  5
19
102
{ACAD_REACTORS
330
C
102
}
100
AcDbDictionary
281
1
  0
DICTIONARY
  5
1A
102
{ACAD_REACTORS
330
C
102
}
100
AcDbDictionary
281
1
  3
Model
350
2A3
  3
Layout1
350
2A4
  0
ACDBPLACEHOLDER
  5
F
102
{ACAD_REACTORS
330
E
102
}
  0
MLINESTYLE
  5
18
102
{ACAD_REACTORS
330
17
102
}
100
AcDbMlineStyle
  2
STANDARD
 70
0
  3

 62
256
 51
90.0
 52
90.0
 71
2
 49
0.5
 62
256
  6
BYLAYER
 49
-0.5
 62
256
  6
BYLAYER
  0
LAYOUT
  5
2A3
102
{ACAD_REACTORS
330
1A
102
}
100
AcDbPlotSettings
  1

  2
none_device
  4

  6

 40
0.0
 41
0.0
 42
0.0
 43
0.0
 44
210.0
 45
297.0
 46
0.0
 47
0.0
 48
0.0
 49
0.0
140
0.0
141
0.0
142
1.0
143
1.0
 70
1024
 72
1
 73
0
 74
0
  7

 75
0
147
1.0
148
0.0
149
0.0
100
AcDbLayout
  1
Model
 70
0
 71
0
 10
0.0
 20
0.0
 11
210.0
 21
297.0
 12
0.0
 22
0.0
 32
0.0
 14
0.0
 24
0.0
 34
0.0
 15
0.0
 25
0.0
 35
0.0
146
0.0
 13
0.0
 23
0.0
 33
0.0
 16
1.0
 26
0.0
 36
0.0
 17
0.0
 27
1.0
 37
0.0
 76
0
330
210
345
0
346
0
  0
LAYOUT
  5
2A4
102
{ACAD_REACTORS
330
1A
102
}
100
AcDbPlotSettings
  1

  2
none_device
  4

  6

 40
0.0
 41
0.0
 42
0.0
 43
0.0
 44
210.0
 45
297.0
 46
0.0
 47
0.0
 48
0.0
 49
0.0
140
0.0
141
0.0
142
1.0
143
1.0
 70
0
 72
1
 73
0
 74
0
  7

 75
0
147
1.0
148
0.0
149
0.0
100
AcDbLayout
  1
Layout1
 70
0
 71
1
 10
0.0
 20
0.0
 11
210.0
 21
297.0
 12
0.0
 22
0.0
 32
0.0
 14
0.0
 24
0.0
 34
0.0
 15
0.0
 25
0.0
 35
0.0
146
0.0
 13
0.0
 23
0.0
 33
0.0
 16
1.0
 26
0.0
 36
0.0
 17
0.0
 27
1.0
 37
0.0
 76
0
330
211
345
0
346
0
  0
ENDSEC
  0
EOF
