  0
SECTION
  2
HEADER
  9
$ACADVER
  1
AC1018
  9
$ACADMAINTVER
 70
     0
  9
$DWGCODEPAGE
  3
ANSI_936
  9
$INSBASE
 10
0.0
 20
0.0
 30
0.0
  9
$EXTMIN
 10
11162.54758259784
 20
2569.937495607306
 30
-0.0015258207003583
  9
$EXTMAX
 10
11811.34428812141
 20
3210.942621397455
 30
0.0000000349246037
  9
$LIMMIN
 10
0.0
 20
0.0
  9
$LIMMAX
 10
0.0
 20
0.0
  9
$ORTHOMODE
 70
     0
  9
$REGENMODE
 70
     1
  9
$FILLMODE
 70
     1
  9
$QTEXTMODE
 70
     0
  9
$MIRRTEXT
 70
     1
  9
$LTSCALE
 40
1.0
  9
$ATTMODE
 70
     1
  9
$TEXTSIZE
 40
0.0
  9
$TRACEWID
 40
0.05
  9
$TEXTSTYLE
  7
Standard
  9
$CLAYER
  8
LEVEL0
  9
$CELTYPE
  6
Continuous
  9
$CECOLOR
 62
   256
  9
$CELTSCALE
 40
1.0
  9
$DISPSILH
 70
     0
  9
$DIMSCALE
 40
1.0
  9
$DIMASZ
 40
3.5
  9
$DIMEXO
 40
4.0
  9
$DIMDLI
 40
0.38
  9
$DIMRND
 40
0.0
  9
$DIMDLE
 40
0.0
  9
$DIMEXE
 40
4.0
  9
$DIMTP
 40
0.0
  9
$DIMTM
 40
0.0
  9
$DIMTXT
 40
3.5
  9
$DIMCEN
 40
0.09
  9
$DIMTSZ
 40
0.0
  9
$DIMTOL
 70
     0
  9
$DIMLIM
 70
     0
  9
$DIMTIH
 70
     0
  9
$DIMTOH
 70
     0
  9
$DIMSE1
 70
     0
  9
$DIMSE2
 70
     0
  9
$DIMTAD
 70
     1
  9
$DIMZIN
 70
     0
  9
$DIMBLK
  1

  9
$DIMASO
 70
     1
  9
$DIMSHO
 70
     1
  9
$DIMPOST
  1

  9
$DIMAPOST
  1

  9
$DIMALT
 70
     0
  9
$DIMALTD
 70
     2
  9
$DIMALTF
 40
25.4
  9
$DIMLFAC
 40
1.0
  9
$DIMTOFL
 70
     1
  9
$DIMTVP
 40
0.0
  9
$DIMTIX
 70
     0
  9
$DIMSOXD
 70
     0
  9
$DIMSAH
 70
     0
  9
$DIMBLK1
  1

  9
$DIMBLK2
  1

  9
$DIMSTYLE
  2
Standard
  9
$DIMCLRD
 70
     0
  9
$DIMCLRE
 70
     0
  9
$DIMCLRT
 70
     1
  9
$DIMTFAC
 40
1.0
  9
$DIMGAP
 40
0.09
  9
$DIMJUST
 70
     0
  9
$DIMSD1
 70
     0
  9
$DIMSD2
 70
     0
  9
$DIMTOLJ
 70
     1
  9
$DIMTZIN
 70
     0
  9
$DIMALTZ
 70
     0
  9
$DIMALTTZ
 70
     0
  9
$DIMUPT
 70
     0
  9
$DIMDEC
 70
     1
  9
$DIMTDEC
 70
     4
  9
$DIMALTU
 70
     2
  9
$DIMALTTD
 70
     2
  9
$DIMTXSTY
  7
Standard
  9
$DIMAUNIT
 70
     0
  9
$DIMADEC
 70
     0
  9
$DIMALTRND
 40
0.0
  9
$DIMAZIN
 70
     0
  9
$DIMDSEP
 70
     0
  9
$DIMATFIT
 70
     1
  9
$DIMFRAC
 70
     0
  9
$DIMLDRBLK
  1

  9
$DIMLUNIT
 70
     2
  9
$DIMLWD
 70
     0
  9
$DIMLWE
 70
     0
  9
$DIMTMOVE
 70
     0
  9
$LUNITS
 70
     2
  9
$LUPREC
 70
     1
  9
$SKETCHINC
 40
0.1
  9
$FILLETRAD
 40
0.0
  9
$AUNITS
 70
     0
  9
$AUPREC
 70
     1
  9
$MENU
  1
acad
  9
$ELEVATION
 40
0.0
  9
$PELEVATION
 40
0.0
  9
$THICKNESS
 40
0.0
  9
$LIMCHECK
 70
     0
  9
$CHAMFERA
 40
0.0
  9
$CHAMFERB
 40
0.0
  9
$CHAMFERC
 40
0.0
  9
$CHAMFERD
 40
0.0
  9
$SKPOLY
 70
     0
  9
$TDCREATE
 40
2454914.760425162
  9
$TDUCREATE
 40
2454914.427091829
  9
$TDUPDATE
 40
2455398.578608392
  9
$TDUUPDATE
 40
2455398.245275058
  9
$TDINDWG
 40
0.0016373727
  9
$TDUSRTIMER
 40
0.0016373727
  9
$USRTIMER
 70
     1
  9
$ANGBASE
 50
0.0
  9
$ANGDIR
 70
     0
  9
$PDMODE
 70
     2
  9
$PDSIZE
 40
-1.0
  9
$PLINEWID
 40
0.0
  9
$SPLFRAME
 70
     0
  9
$SPLINETYPE
 70
     6
  9
$SPLINESEGS
 70
     8
  9
$HANDSEED
  5
D6
  9
$SURFTAB1
 70
     6
  9
$SURFTAB2
 70
     6
  9
$SURFTYPE
 70
     6
  9
$SURFU
 70
     6
  9
$SURFV
 70
     6
  9
$UCSBASE
  2

  9
$UCSNAME
  2

  9
$UCSORG
 10
0.0
 20
0.0
 30
0.0
  9
$UCSXDIR
 10
1.0
 20
0.0
 30
0.0
  9
$UCSYDIR
 10
0.0
 20
1.0
 30
0.0
  9
$UCSORTHOREF
  2

  9
$UCSORTHOVIEW
 70
     0
  9
$UCSORGTOP
 10
0.0
 20
0.0
 30
0.0
  9
$UCSORGBOTTOM
 10
0.0
 20
0.0
 30
0.0
  9
$UCSORGLEFT
 10
0.0
 20
0.0
 30
0.0
  9
$UCSORGRIGHT
 10
0.0
 20
0.0
 30
0.0
  9
$UCSORGFRONT
 10
0.0
 20
0.0
 30
0.0
  9
$UCSORGBACK
 10
0.0
 20
0.0
 30
0.0
  9
$PUCSBASE
  2

  9
$PUCSNAME
  2

  9
$PUCSORG
 10
0.0
 20
0.0
 30
0.0
  9
$PUCSXDIR
 10
1.0
 20
0.0
 30
0.0
  9
$PUCSYDIR
 10
0.0
 20
1.0
 30
0.0
  9
$PUCSORTHOREF
  2

  9
$PUCSORTHOVIEW
 70
     0
  9
$PUCSORGTOP
 10
0.0
 20
0.0
 30
0.0
  9
$PUCSORGBOTTOM
 10
0.0
 20
0.0
 30
0.0
  9
$PUCSORGLEFT
 10
0.0
 20
0.0
 30
0.0
  9
$PUCSORGRIGHT
 10
0.0
 20
0.0
 30
0.0
  9
$PUCSORGFRONT
 10
0.0
 20
0.0
 30
0.0
  9
$PUCSORGBACK
 10
0.0
 20
0.0
 30
0.0
  9
$USERI1
 70
     0
  9
$USERI2
 70
     0
  9
$USERI3
 70
     0
  9
$USERI4
 70
     0
  9
$USERI5
 70
     0
  9
$USERR1
 40
0.0
  9
$USERR2
 40
0.0
  9
$USERR3
 40
0.0
  9
$USERR4
 40
0.0
  9
$USERR5
 40
0.0
  9
$WORLDVIEW
 70
     1
  9
$SHADEDGE
 70
     3
  9
$SHADEDIF
 70
    70
  9
$TILEMODE
 70
     1
  9
$MAXACTVP
 70
    16
  9
$PINSBASE
 10
0.0
 20
0.0
 30
0.0
  9
$PLIMCHECK
 70
     0
  9
$PEXTMIN
 10
1.000000000000000E+20
 20
1.000000000000000E+20
 30
1.000000000000000E+20
  9
$PEXTMAX
 10
-1.000000000000000E+20
 20
-1.000000000000000E+20
 30
-1.000000000000000E+20
  9
$PLIMMIN
 10
0.0
 20
0.0
  9
$PLIMMAX
 10
12.0
 20
9.0
  9
$UNITMODE
 70
     0
  9
$VISRETAIN
 70
     0
  9
$PLINEGEN
 70
     1
  9
$PSLTSCALE
 70
     0
  9
$TREEDEPTH
 70
  3020
  9
$CMLSTYLE
  2
Standard
  9
$CMLJUST
 70
     0
  9
$CMLSCALE
 40
1.0
  9
$PROXYGRAPHICS
 70
     0
  9
$MEASUREMENT
 70
     0
  9
$CELWEIGHT
370
     0
  9
$ENDCAPS
280
     0
  9
$JOINSTYLE
280
     0
  9
$LWDISPLAY
290
     0
  9
$INSUNITS
 70
     4
  9
$HYPERLINKBASE
  1

  9
$STYLESHEET
  1
LAI.ctb
  9
$XEDIT
290
     1
  9
$CEPSNTYPE
380
     0
  9
$PSTYLEMODE
290
     1
  9
$FINGERPRINTGUID
  2

  9
$VERSIONGUID
  2
{429874E6-F8C5-4B04-A00F-5E0630ECE1DE}
  9
$EXTNAMES
290
     1
  9
$PSVPSCALE
 40
0.0
  9
$OLESTARTUP
290
     0
  9
$SORTENTS
280
   127
  9
$INDEXCTL
280
     0
  9
$HIDETEXT
280
     0
  9
$XCLIPFRAME
290
     0
  9
$HALOGAP
280
     0
  9
$OBSCOLOR
 70
   257
  9
$OBSLTYPE
280
     0
  9
$INTERSECTIONDISPLAY
280
     0
  9
$INTERSECTIONCOLOR
 70
   257
  9
$DIMASSOC
280
     1
  9
$PROJECTNAME
  1

  0
ENDSEC
  0
SECTION
  2
CLASSES
  0
CLASS
  1
IMAGE
  2
AcDbRasterImage
  3
ISM
 90
      127
 91
        0
280
     0
281
     1
  0
CLASS
  1
DICTIONARYVAR
  2
AcDbDictionaryVar
  3
ObjectDBX Classes
 90
        0
 91
        0
280
     0
281
     0
  0
CLASS
  1
RASTERVARIABLES
  2
AcDbRasterVariables
  3
ISM
 90
        0
 91
        0
280
     0
281
     0
  0
CLASS
  1
IMAGEDEF
  2
AcDbRasterImageDef
  3
ISM
 90
        0
 91
        0
280
     0
281
     0
  0
CLASS
  1
IMAGEDEF_REACTOR
  2
AcDbRasterImageDefReactor
  3
ISM
 90
        1
 91
        0
280
     0
281
     0
  0
CLASS
  1
IDBUFFER
  2
AcDbIdBuffer
  3
ObjectDBX Classes
 90
        0
 91
        0
280
     0
281
     0
  0
CLASS
  1
SPATIAL_FILTER
  2
AcDbSpatialFilter
  3
ObjectDBX Classes
 90
        0
 91
        0
280
     0
281
     0
  0
CLASS
  1
SORTENTSTABLE
  2
AcDbSortentsTable
  3
ObjectDBX Classes
 90
        0
 91
        0
280
     0
281
     0
  0
CLASS
  1
LAYER_INDEX
  2
AcDbLayerIndex
  3
ObjectDBX Classes
 90
        0
 91
        0
280
     0
281
     0
  0
CLASS
  1
SPATIAL_INDEX
  2
AcDbSpatialIndex
  3
ObjectDBX Classes
 90
        0
 91
        0
280
     0
281
     0
  0
CLASS
  1
OBJECT_PTR
  2
CAseDLPNTableRecord
  3
"ASE-LPNTableRecord"
 90
        1
 91
        0
280
     0
281
     0
  0
CLASS
  1
PLOTSETTINGS
  2
AcDbPlotSettings
  3
ObjectDBX Classes
 90
        0
 91
        0
280
     0
281
     0
  0
CLASS
  1
ACDBDICTIONARYWDFLT
  2
AcDbDictionaryWithDefault
  3
ObjectDBX Classes
 90
        0
 91
        1
280
     0
281
     0
  0
ENDSEC
  0
SECTION
  2
TABLES
  0
TABLE
  2
VPORT
  5
7
330
0
100
AcDbSymbolTable
 70
     2
  0
VPORT
  5
D5
330
7
100
AcDbSymbolTableRecord
100
AcDbViewportTableRecord
  2
*Active
 70
     0
 10
0.0
 20
0.0
 11
1.0
 21
1.0
 12
11498.37739411927
 22
2872.853037077306
 13
0.0
 23
0.0
 14
1.0
 24
1.0
 15
0.0
 25
0.0
 16
0.0
 26
0.0
 36
1.0
 17
0.0
 27
0.0
 37
0.0
 40
866.9701226669831
 41
1.832635983263598
 42
50.0
 43
0.0
 44
0.0
 50
0.0
 51
0.0
 71
     0
 72
   100
 73
     1
 74
     1
 75
     0
 76
     0
 77
     0
 78
     0
281
     0
 65
     0
110
0.0
120
0.0
130
0.0
111
1.0
121
0.0
131
0.0
112
0.0
122
1.0
132
0.0
 79
     0
146
0.0
  0
ENDTAB
  0
TABLE
  2
LTYPE
  5
4
330
0
100
AcDbSymbolTable
 70
     2
  0
LTYPE
  5
11
330
4
100
AcDbSymbolTableRecord
100
AcDbLinetypeTableRecord
  2
ByBlock
 70
     0
  3

 72
    65
 73
     0
 40
0.0
  0
LTYPE
  5
12
330
4
100
AcDbSymbolTableRecord
100
AcDbLinetypeTableRecord
  2
ByLayer
 70
     0
  3

 72
    65
 73
     0
 40
0.0
  0
LTYPE
  5
13
330
4
100
AcDbSymbolTableRecord
100
AcDbLinetypeTableRecord
  2
Continuous
 70
     0
  3
Solid line
 72
    65
 73
     0
 40
0.0
  0
LTYPE
  5
26
330
4
100
AcDbSymbolTableRecord
100
AcDbLinetypeTableRecord
  2
SOLID
 70
     0
  3
Solid line
 72
    65
 73
     0
 40
0.0
  0
ENDTAB
  0
TABLE
  2
LAYER
  5
2
330
0
100
AcDbSymbolTable
 70
     2
  0
LAYER
  5
14
330
2
100
AcDbSymbolTableRecord
100
AcDbLayerTableRecord
  2
0
 70
     0
 62
     7
  6
Continuous
370
    -3
390
1D
  0
LAYER
  5
23
330
2
100
AcDbSymbolTableRecord
100
AcDbLayerTableRecord
  2
LEVEL0
 70
     0
 62
     7
  6
Continuous
370
    -3
390
1F
  0
ENDTAB
  0
TABLE
  2
STYLE
  5
3
330
0
100
AcDbSymbolTable
 70
     1
  0
STYLE
  5
17
330
3
100
AcDbSymbolTableRecord
100
AcDbTextStyleTableRecord
  2
Standard
 70
     0
 40
0.0
 41
1.0
 50
0.0
 71
     0
 42
0.0
  3
txt
  4

  0
ENDTAB
  0
TABLE
  2
VIEW
  5
5
330
0
100
AcDbSymbolTable
 70
     0
  0
ENDTAB
  0
TABLE
  2
UCS
  5
6
330
0
100
AcDbSymbolTable
 70
     0
  0
ENDTAB
  0
TABLE
  2
APPID
  5
8
330
0
100
AcDbSymbolTable
 70
     1
  0
APPID
  5
16
330
8
100
AcDbSymbolTableRecord
100
AcDbRegAppTableRecord
  2
ACAD
 70
     0
  0
ENDTAB
  0
TABLE
  2
DIMSTYLE
  5
9
330
0
100
AcDbSymbolTable
 70
     2
100
AcDbDimStyleTable
 71
     0
  0
DIMSTYLE
105
18
330
9
100
AcDbSymbolTableRecord
100
AcDbDimStyleTableRecord
  2
Standard
 70
     0
 41
3.5
 42
4.0
 44
4.0
 73
     0
 74
     0
 77
     1
140
3.5
172
     1
178
     1
340
17
  0
DIMSTYLE
105
CD
330
9
100
AcDbSymbolTableRecord
100
AcDbDimStyleTableRecord
  2
ISO-25
 70
     0
 41
18.0
 42
0.625
 43
3.75
 44
1.25
 73
     0
 77
     1
 78
     8
140
25.0
141
15.0
143
0.03937007874016
147
0.625
171
     3
172
     1
176
   256
177
   256
271
     2
272
     2
274
     3
278
    44
283
     0
284
     8
340
17
371
     9
372
     9
  0
ENDTAB
  0
TABLE
  2
BLOCK_RECORD
  5
1
330
0
100
AcDbSymbolTable
 70
     2
  0
BLOCK_RECORD
  5
A
330
1
100
AcDbSymbolTableRecord
100
AcDbBlockTableRecord
  2
*MODEL_SPACE
340
20
  0
BLOCK_RECORD
  5
B
330
1
100
AcDbSymbolTableRecord
100
AcDbBlockTableRecord
  2
*PAPER_SPACE
340
21
  0
BLOCK_RECORD
  5
24
330
1
100
AcDbSymbolTableRecord
100
AcDbBlockTableRecord
  2
*G000
340
0
  0
ENDTAB
  0
ENDSEC
  0
SECTION
  2
BLOCKS
  0
BLOCK
  5
D
330
A
100
AcDbEntity
  8
0
100
AcDbBlockBegin
  2
*MODEL_SPACE
 70
     0
 10
0.0
 20
0.0
 30
0.0
  3
*MODEL_SPACE
  1

  0
ENDBLK
  5
E
330
A
100
AcDbEntity
  8
0
100
AcDbBlockEnd
  0
BLOCK
  5
F
330
B
100
AcDbEntity
 67
     1
  8
0
100
AcDbBlockBegin
  2
*PAPER_SPACE
 70
     0
 10
0.0
 20
0.0
 30
0.0
  3
*PAPER_SPACE
  1

  0
ENDBLK
  5
10
330
B
100
AcDbEntity
 67
     1
  8
0
100
AcDbBlockEnd
  0
BLOCK
  5
25
330
24
100
AcDbEntity
  8
0
100
AcDbBlockBegin
  2
*G000
 70
     0
 10
0.0
 20
0.0
 30
0.0
  3
*G000
  1

  0
LINE
  5
27
330
24
100
AcDbEntity
  8
LEVEL0
  6
SOLID
 62
     7
370
     9
100
AcDbLine
 10
11542.18469
 20
3052.565636
 30
0.0
 11
11558.036606
 21
3127.916262
 31
0.0
  0
LINE
  5
28
330
24
100
AcDbEntity
  8
LEVEL0
  6
SOLID
 62
     7
370
     9
100
AcDbLine
 10
11556.079447
 20
3128.328
 30
0.0
 11
11559.993765
 21
3127.504524
 31
0.0
  0
LINE
  5
29
330
24
100
AcDbEntity
  8
LEVEL0
  6
SOLID
 62
     7
370
     9
100
AcDbLine
 10
11559.993765
 20
3127.504524
 30
0.0
 11
11560.507035
 21
3139.659216
 31
0.0
  0
LINE
  5
2A
330
24
100
AcDbEntity
  8
LEVEL0
  6
SOLID
 62
     7
370
     9
100
AcDbLine
 10
11560.507035
 20
3139.659216
 30
0.0
 11
11556.079447
 21
3128.328
 31
0.0
  0
LINE
  5
2B
330
24
100
AcDbEntity
  8
LEVEL0
  6
SOLID
 62
     7
370
     9
100
AcDbLine
 10
11599.158698
 20
2997.894059
 30
0.0
 11
11678.47806
 21
3062.022358
 31
0.0
  0
LINE
  5
2C
330
24
100
AcDbEntity
  8
LEVEL0
  6
SOLID
 62
     7
370
     9
100
AcDbLine
 10
11677.220642
 20
3063.57764
 30
0.0
 11
11679.735478
 21
3060.467077
 31
0.0
  0
LINE
  5
2D
330
24
100
AcDbEntity
  8
LEVEL0
  6
SOLID
 62
     7
370
     9
100
AcDbLine
 10
11679.735478
 20
3060.467077
 30
0.0
 11
11687.80975
 21
3069.566864
 31
0.0
  0
LINE
  5
2E
330
24
100
AcDbEntity
  8
LEVEL0
  6
SOLID
 62
     7
370
     9
100
AcDbLine
 10
11687.80975
 20
3069.566864
 30
0.0
 11
11677.220642
 21
3063.57764
 31
0.0
  0
LINE
  5
2F
330
24
100
AcDbEntity
  8
LEVEL0
  6
SOLID
 62
     7
370
     9
100
AcDbLine
 10
11625.271209
 20
2768.72114
 30
0.0
 11
11706.602279
 21
2711.401797
 31
0.0
  0
LINE
  5
30
330
24
100
AcDbEntity
  8
LEVEL0
  6
SOLID
 62
     7
370
     9
100
AcDbLine
 10
11707.754426
 20
2713.036593
 30
0.0
 11
11705.450131
 21
2709.767002
 31
0.0
  0
LINE
  5
31
330
24
100
AcDbEntity
  8
LEVEL0
  6
SOLID
 62
     7
370
     9
100
AcDbLine
 10
11705.450131
 20
2709.767002
 30
0.0
 11
11716.411051
 21
2704.488912
 31
0.0
  0
LINE
  5
32
330
24
100
AcDbEntity
  8
LEVEL0
  6
SOLID
 62
     7
370
     9
100
AcDbLine
 10
11716.411051
 20
2704.488912
 30
0.0
 11
11707.754426
 21
2713.036593
 31
0.0
  0
LINE
  5
33
330
24
100
AcDbEntity
  8
LEVEL0
  6
SOLID
 62
     7
370
     9
100
AcDbLine
 10
11290.706732
 20
2652.97666
 30
0.0
 11
11290.706732
 21
2606.635299000001
 31
0.0
  0
LINE
  5
34
330
24
100
AcDbEntity
  8
LEVEL0
  6
SOLID
 62
     7
370
     9
100
AcDbLine
 10
11630.584294
 20
2652.97666
 30
0.0
 11
11630.584294
 21
2606.635299000001
 31
0.0
  0
LINE
  5
35
330
24
100
AcDbEntity
  8
LEVEL0
  6
SOLID
 62
     7
370
     9
100
AcDbLine
 10
11302.706732
 20
2607.885299
 30
0.0
 11
11618.584294
 21
2607.885299
 31
0.0
  0
LINE
  5
36
330
24
100
AcDbEntity
  8
LEVEL0
  6
SOLID
 62
     7
370
     9
100
AcDbLine
 10
11302.706732
 20
2609.885299
 30
0.0
 11
11302.706732
 21
2605.885299
 31
0.0
  0
LINE
  5
37
330
24
100
AcDbEntity
  8
LEVEL0
  6
SOLID
 62
     7
370
     9
100
AcDbLine
 10
11302.706732
 20
2605.885299
 30
0.0
 11
11290.706732
 21
2607.885299
 31
0.0
  0
LINE
  5
38
330
24
100
AcDbEntity
  8
LEVEL0
  6
SOLID
 62
     7
370
     9
100
AcDbLine
 10
11290.706732
 20
2607.885299
 30
0.0
 11
11302.706732
 21
2609.885299
 31
0.0
  0
LINE
  5
39
330
24
100
AcDbEntity
  8
LEVEL0
  6
SOLID
 62
     7
370
     9
100
AcDbLine
 10
11618.584294
 20
2609.885299
 30
0.0
 11
11618.584294
 21
2605.885299
 31
0.0
  0
LINE
  5
3A
330
24
100
AcDbEntity
  8
LEVEL0
  6
SOLID
 62
     7
370
     9
100
AcDbLine
 10
11618.584294
 20
2605.885299
 30
0.0
 11
11630.584294
 21
2607.885299
 31
0.0
  0
LINE
  5
3B
330
24
100
AcDbEntity
  8
LEVEL0
  6
SOLID
 62
     7
370
     9
100
AcDbLine
 10
11630.584294
 20
2607.885299
 30
0.0
 11
11618.584294
 21
2609.885299
 31
0.0
  0
LINE
  5
3C
330
24
100
AcDbEntity
  8
LEVEL0
  6
SOLID
 62
     7
370
     9
100
AcDbLine
 10
11185.770973
 20
2761.64905
 30
0.0
 11
11185.770973
 21
2570.860672
 31
0.0
  0
LINE
  5
3D
330
24
100
AcDbEntity
  8
LEVEL0
  6
SOLID
 62
     7
370
     9
100
AcDbLine
 10
11735.580715
 20
2757.109807
 30
0.0
 11
11735.580715
 21
2570.860672
 31
0.0
  0
LINE
  5
3E
330
24
100
AcDbEntity
  8
LEVEL0
  6
SOLID
 62
     7
370
     9
100
AcDbLine
 10
11197.770973
 20
2572.110672
 30
0.0
 11
11723.580715
 21
2572.110672
 31
0.0
  0
LINE
  5
3F
330
24
100
AcDbEntity
  8
LEVEL0
  6
SOLID
 62
     7
370
     9
100
AcDbLine
 10
11197.770973
 20
2574.110672
 30
0.0
 11
11197.770973
 21
2570.110672
 31
0.0
  0
LINE
  5
40
330
24
100
AcDbEntity
  8
LEVEL0
  6
SOLID
 62
     7
370
     9
100
AcDbLine
 10
11197.770973
 20
2570.110672
 30
0.0
 11
11185.770973
 21
2572.110672
 31
0.0
  0
LINE
  5
41
330
24
100
AcDbEntity
  8
LEVEL0
  6
SOLID
 62
     7
370
     9
100
AcDbLine
 10
11185.770973
 20
2572.110672
 30
0.0
 11
11197.770973
 21
2574.110672
 31
0.0
  0
LINE
  5
42
330
24
100
AcDbEntity
  8
LEVEL0
  6
SOLID
 62
     7
370
     9
100
AcDbLine
 10
11723.580715
 20
2574.110672
 30
0.0
 11
11723.580715
 21
2570.110672
 31
0.0
  0
LINE
  5
43
330
24
100
AcDbEntity
  8
LEVEL0
  6
SOLID
 62
     7
370
     9
100
AcDbLine
 10
11723.580715
 20
2570.110672
 30
0.0
 11
11735.580715
 21
2572.110672
 31
0.0
  0
LINE
  5
44
330
24
100
AcDbEntity
  8
LEVEL0
  6
SOLID
 62
     7
370
     9
100
AcDbLine
 10
11735.580715
 20
2572.110672
 30
0.0
 11
11723.580715
 21
2574.110672
 31
0.0
  0
LINE
  5
45
330
24
100
AcDbEntity
  8
LEVEL0
  6
SOLID
 62
     7
370
     9
100
AcDbLine
 10
11467.645513
 20
3150.049699
 30
0.0
 11
11810.233818
 21
3150.049699
 31
0.0
  0
LINE
  5
46
330
24
100
AcDbEntity
  8
LEVEL0
  6
SOLID
 62
     7
370
     9
100
AcDbLine
 10
11637.584294
 20
2659.97666
 30
0.0
 11
11810.233818
 21
2659.97666
 31
0.0
  0
LINE
  5
47
330
24
100
AcDbEntity
  8
LEVEL0
  6
SOLID
 62
     7
370
     9
100
AcDbLine
 10
11808.983818
 20
3138.049699
 30
0.0
 11
11808.983818
 21
2671.97666
 31
0.0
  0
LINE
  5
48
330
24
100
AcDbEntity
  8
LEVEL0
  6
SOLID
 62
     7
370
     9
100
AcDbLine
 10
11806.983818
 20
3138.049699
 30
0.0
 11
11810.983818
 21
3138.049699
 31
0.0
  0
LINE
  5
49
330
24
100
AcDbEntity
  8
LEVEL0
  6
SOLID
 62
     7
370
     9
100
AcDbLine
 10
11810.983818
 20
3138.049699
 30
0.0
 11
11808.983818
 21
3150.049699
 31
0.0
  0
LINE
  5
4A
330
24
100
AcDbEntity
  8
LEVEL0
  6
SOLID
 62
     7
370
     9
100
AcDbLine
 10
11808.983818
 20
3150.049699
 30
0.0
 11
11806.983818
 21
3138.049699
 31
0.0
  0
LINE
  5
4B
330
24
100
AcDbEntity
  8
LEVEL0
  6
SOLID
 62
     7
370
     9
100
AcDbLine
 10
11806.983818
 20
2671.97666
 30
0.0
 11
11810.983818
 21
2671.97666
 31
0.0
  0
LINE
  5
4C
330
24
100
AcDbEntity
  8
LEVEL0
  6
SOLID
 62
     7
370
     9
100
AcDbLine
 10
11810.983818
 20
2671.97666
 30
0.0
 11
11808.983818
 21
2659.97666
 31
0.0
  0
LINE
  5
4D
330
24
100
AcDbEntity
  8
LEVEL0
  6
SOLID
 62
     7
370
     9
100
AcDbLine
 10
11808.983818
 20
2659.97666
 30
0.0
 11
11806.983818
 21
2671.97666
 31
0.0
  0
ARC
  5
4E
330
24
100
AcDbEntity
  8
LEVEL0
  6
SOLID
 62
     7
370
     9
100
AcDbCircle
 10
11739.323211
 20
2659.97666
 30
0.0
 40
227.259228
100
AcDbArc
 50
95.03008499999999
 51
176.974252
  0
LINE
  5
4F
330
24
100
AcDbEntity
  8
LEVEL0
  6
SOLID
 62
     7
370
     9
100
AcDbLine
 10
11719.274695
 20
2888.356899
 30
0.0
 11
11719.520088
 21
2884.364433
 31
0.0
  0
LINE
  5
50
330
24
100
AcDbEntity
  8
LEVEL0
  6
SOLID
 62
     7
370
     9
100
AcDbLine
 10
11719.520088
 20
2884.364433
 30
0.0
 11
11731.374789
 21
2887.096847
 31
0.0
  0
LINE
  5
51
330
24
100
AcDbEntity
  8
LEVEL0
  6
SOLID
 62
     7
370
     9
100
AcDbLine
 10
11731.374789
 20
2887.096847
 30
0.0
 11
11719.274695
 21
2888.356899
 31
0.0
  0
LINE
  5
52
330
24
100
AcDbEntity
  8
LEVEL0
  6
SOLID
 62
     7
370
     9
100
AcDbLine
 10
11514.380106
 20
2671.919674
 30
0.0
 11
11510.3815
 21
2672.025280000001
 31
0.0
  0
LINE
  5
53
330
24
100
AcDbEntity
  8
LEVEL0
  6
SOLID
 62
     7
370
     9
100
AcDbLine
 10
11510.3815
 20
2672.025280000001
 30
0.0
 11
11512.063984
 21
2659.97666
 31
0.0
  0
LINE
  5
54
330
24
100
AcDbEntity
  8
LEVEL0
  6
SOLID
 62
     7
370
     9
100
AcDbLine
 10
11512.063984
 20
2659.97666
 30
0.0
 11
11514.380106
 21
2671.919674
 31
0.0
  0
LINE
  5
55
330
24
100
AcDbEntity
  8
LEVEL0
  6
SOLID
 62
     7
370
     9
100
AcDbLine
 10
11453.645513
 20
2659.97666
 30
0.0
 11
11439.772735
 21
2659.97666
 31
0.0
  0
LINE
  5
56
330
24
100
AcDbEntity
  8
LEVEL0
  6
SOLID
 62
     7
370
     9
100
AcDbLine
 10
11441.022735
 20
2640.976660000001
 30
0.0
 11
11441.022735
 21
2628.976660000001
 31
0.0
  0
LINE
  5
57
330
24
100
AcDbEntity
  8
LEVEL0
  6
SOLID
 62
     7
370
     9
100
AcDbLine
 10
11441.022735
 20
2671.97666
 30
0.0
 11
11441.022735
 21
2703.97666
 31
0.0
  0
LINE
  5
58
330
24
100
AcDbEntity
  8
LEVEL0
  6
SOLID
 62
     7
370
     9
100
AcDbLine
 10
11441.022735
 20
2652.97666
 30
0.0
 11
11441.022735
 21
2659.97666
 31
0.0
  0
LINE
  5
59
330
24
100
AcDbEntity
  8
LEVEL0
  6
SOLID
 62
     7
370
     9
100
AcDbLine
 10
11439.022735
 20
2640.976660000001
 30
0.0
 11
11443.022735
 21
2640.976660000001
 31
0.0
  0
LINE
  5
5A
330
24
100
AcDbEntity
  8
LEVEL0
  6
SOLID
 62
     7
370
     9
100
AcDbLine
 10
11443.022735
 20
2640.976660000001
 30
0.0
 11
11441.022735
 21
2652.97666
 31
0.0
  0
LINE
  5
5B
330
24
100
AcDbEntity
  8
LEVEL0
  6
SOLID
 62
     7
370
     9
100
AcDbLine
 10
11441.022735
 20
2652.97666
 30
0.0
 11
11439.022735
 21
2640.976660000001
 31
0.0
  0
LINE
  5
5C
330
24
100
AcDbEntity
  8
LEVEL0
  6
SOLID
 62
     7
370
     9
100
AcDbLine
 10
11439.022735
 20
2671.97666
 30
0.0
 11
11443.022735
 21
2671.97666
 31
0.0
  0
LINE
  5
5D
330
24
100
AcDbEntity
  8
LEVEL0
  6
SOLID
 62
     7
370
     9
100
AcDbLine
 10
11443.022735
 20
2671.97666
 30
0.0
 11
11441.022735
 21
2659.97666
 31
0.0
  0
LINE
  5
5E
330
24
100
AcDbEntity
  8
LEVEL0
  6
SOLID
 62
     7
370
     9
100
AcDbLine
 10
11441.022735
 20
2659.97666
 30
0.0
 11
11439.022735
 21
2671.97666
 31
0.0
  0
ARC
  5
5F
330
24
100
AcDbEntity
  8
LEVEL0
  6
SOLID
 62
     7
370
     9
100
AcDbCircle
 10
11630.584294
 20
2764.97666
 30
0.0
 40
105.0
100
AcDbArc
 50
270.0
 51
2.004337
  0
LINE
  5
60
330
24
100
AcDbEntity
  8
LEVEL0
  6
SOLID
 62
     7
370
     9
100
AcDbLine
 10
11735.520053
 20
2768.64905
 30
0.0
 11
11728.833014
 21
2959.726133
 31
0.0
  0
LINE
  5
61
330
24
100
AcDbEntity
  8
LEVEL0
  6
SOLID
 62
     7
370
     9
100
AcDbLine
 10
11290.706732
 20
2659.97666
 30
0.0
 11
11630.584294
 21
2659.97666
 31
0.0
  0
ARC
  5
62
330
24
100
AcDbEntity
  8
LEVEL0
  6
SOLID
 62
     7
370
     9
100
AcDbCircle
 10
11290.706732
 20
2764.97666
 30
0.0
 40
105.0
100
AcDbArc
 50
177.995663
 51
270.0
  0
LINE
  5
63
330
24
100
AcDbEntity
  8
LEVEL0
  6
SOLID
 62
     7
370
     9
100
AcDbLine
 10
11185.770973
 20
2768.64905
 30
0.0
 11
11192.458011
 21
2959.726133
 31
0.0
  0
ARC
  5
64
330
24
100
AcDbEntity
  8
LEVEL0
  6
SOLID
 62
     7
370
     9
100
AcDbCircle
 10
11377.344825
 20
2953.255733
 30
0.0
 40
185.0
100
AcDbArc
 50
106.117099
 51
177.995663
  0
ARC
  5
65
330
24
100
AcDbEntity
  8
LEVEL0
  6
SOLID
 62
     7
370
     9
100
AcDbCircle
 10
11460.645513
 20
2664.976660000001
 30
0.0
 40
485.0730389999998
100
AcDbArc
 50
73.882901
 51
106.117099
  0
ARC
  5
66
330
24
100
AcDbEntity
  8
LEVEL0
  6
SOLID
 62
     7
370
     9
100
AcDbCircle
 10
11543.9462
 20
2953.255733
 30
0.0
 40
185.0
100
AcDbArc
 50
2.004337
 51
73.882901
  0
ENDBLK
  5
67
330
24
100
AcDbEntity
  8
0
100
AcDbBlockEnd
  0
ENDSEC
  0
SECTION
  2
ENTITIES
  0
MTEXT
  5
68
330
A
100
AcDbEntity
  8
LEVEL0
  6
SOLID
 62
     7
370
     9
100
AcDbMText
 10
11532.048766
 20
3065.101617
 30
0.0
 40
15.0
 41
0.0
 71
     4
 72
     5
  1
\f|b0|i0|c177|p0;\W0.9;485
 11
0.2058689113157067
 21
0.9785795784470908
 31
0.0
 73
     2
 44
1.0
  0
MTEXT
  5
69
330
A
100
AcDbEntity
  8
LEVEL0
  6
SOLID
 62
     7
370
     9
100
AcDbMText
 10
11604.918695
 20
3018.624983
 30
0.0
 40
15.0
 41
0.0
 71
     4
 72
     5
  1
\f|b0|i0|c177|p0;\W0.9;2-R185
 11
0.7776407933178798
 21
0.6287088329011599
 31
0.0
 73
     2
 44
1.0
  0
MTEXT
  5
6A
330
A
100
AcDbEntity
  8
LEVEL0
  6
SOLID
 62
     7
370
     9
100
AcDbMText
 10
11645.956917
 20
2769.435051
 30
0.0
 40
15.0
 41
0.0
 71
     4
 72
     5
  1
\f|b0|i0|c177|p0;\W0.9;2-R105
 11
0.8173976959771575
 21
-0.5760737857351561
 31
0.0
 73
     2
 44
1.0
  0
MTEXT
  5
6B
330
A
100
AcDbEntity
  8
LEVEL0
  6
SOLID
 62
     7
370
     9
100
AcDbMText
 10
11446.068359
 20
2620.385254
 30
0.0
 40
15.0
 41
0.0
 71
     4
 72
     5
  1
\f|b0|i0|c177|p0;\W0.9;340
 73
     2
 44
1.0
  0
MTEXT
  5
6C
330
A
100
AcDbEntity
  8
LEVEL0
  6
SOLID
 62
     7
370
     9
100
AcDbMText
 10
11446.649414
 20
2584.610596
 30
0.0
 40
15.0
 41
0.0
 71
     4
 72
     5
  1
\f|b0|i0|c177|p0;\W0.9;550
 73
     2
 44
1.0
  0
MTEXT
  5
6D
330
A
100
AcDbEntity
  8
LEVEL0
  6
SOLID
 62
     7
370
     9
100
AcDbMText
 10
11796.483399
 20
2890.436035
 30
0.0
 40
15.0
 41
0.0
 71
     4
 72
     5
  1
\f|b0|i0|c177|p0;\W0.9;490
 11
0.0
 21
1.0
 31
0.0
 73
     2
 44
1.0
  0
MTEXT
  5
6E
330
A
100
AcDbEntity
  8
LEVEL0
  6
SOLID
 62
     7
370
     9
100
AcDbMText
 10
11553.904967
 20
2813.71199
 30
0.0
 40
15.0
 41
0.0
 71
     4
 72
     5
  1
\W0.9;{\f|b0|i0|c177|p0;88\fSimSun|b0|i0|c134|p2;%%d}
 11
0.6946311152681388
 21
0.7193661193727028
 31
0.0
 73
     2
 44
1.0
  0
MTEXT
  5
70
330
A
100
AcDbEntity
  8
LEVEL0
  6
SOLID
 62
     7
370
     9
100
AcDbMText
 10
626.356934
 20
229.90976
 30
0.0
 40
5.0
 41
0.0
 71
     9
 72
     5
  1
\f|b0|i0|c177|p0;\W0.9;   
 73
     2
 44
1.0
  0
MTEXT
  5
71
330
A
100
AcDbEntity
  8
LEVEL0
  6
SOLID
 62
     7
370
     9
100
AcDbMText
 10
628.230835
 20
-319.888855
 30
0.0
 40
5.0
 41
0.0
 71
     9
 72
     5
  1
\f|b0|i0|c177|p0;\W0.9; 
 73
     2
 44
1.0
  0
MTEXT
  5
72
330
A
100
AcDbEntity
  8
LEVEL0
  6
SOLID
 62
     7
370
     9
100
AcDbMText
 10
720.164612
 20
-489.9779049999998
 30
0.0
 40
5.0
 41
0.0
 71
     9
 72
     5
  1
\f|b0|i0|c177|p0;\W0.9; 
 73
     2
 44
1.0
  0
MTEXT
  5
73
330
A
100
AcDbEntity
  8
LEVEL0
  6
SOLID
 62
     7
370
     9
100
AcDbMText
 10
628.288452
 20
-492.4204099999998
 30
0.0
 40
5.0
 41
0.0
 71
     9
 72
     5
  1
\f|b0|i0|c177|p0;\W0.9; 
 73
     2
 44
1.0
  0
MTEXT
  5
74
330
A
100
AcDbEntity
  8
LEVEL0
  6
SOLID
 62
     7
370
     9
100
AcDbMText
 10
337.668518
 20
-323.369324
 30
0.0
 40
5.0
 41
0.0
 71
     9
 72
     5
  1
\f|b0|i0|c177|p0;\W0.9; 
 73
     2
 44
1.0
  0
MTEXT
  5
75
330
A
100
AcDbEntity
  8
LEVEL0
  6
SOLID
 62
     7
370
     9
100
AcDbMText
 10
680.5469969999998
 20
-710.4545289999999
 30
0.0
 40
5.0
 41
0.0
 71
     9
 72
     5
  1
\f|b0|i0|c177|p0;\W0.9; 
 73
     2
 44
1.0
  0
MTEXT
  5
76
330
A
100
AcDbEntity
  8
LEVEL0
  6
SOLID
 62
     7
370
     9
100
AcDbMText
 10
2221.91626
 20
640.452209
 30
0.0
 40
5.0
 41
0.0
 71
     9
 72
     5
  1
\f|b0|i0|c177|p0;\W0.9;   
 73
     2
 44
1.0
  0
MTEXT
  5
77
330
A
100
AcDbEntity
  8
LEVEL0
  6
SOLID
 62
     7
370
     9
100
AcDbMText
 10
2585.172607
 20
1117.830688
 30
0.0
 40
41.400002
 41
0.0
 71
     1
 72
     5
  1
\f|b0|i0|c177|p0;\W0.9; 
 73
     2
 44
1.0
  0
MTEXT
  5
78
330
A
100
AcDbEntity
  8
LEVEL0
  6
SOLID
 62
     7
370
     9
100
AcDbMText
 10
3254.740723
 20
521.9854129999998
 30
0.0
 40
5.0
 41
0.0
 71
     9
 72
     5
  1
\f|b0|i0|c177|p0;\W0.9;   
 73
     2
 44
1.0
  0
MTEXT
  5
79
330
A
100
AcDbEntity
  8
LEVEL0
  6
SOLID
 62
     7
370
     9
100
AcDbMText
 10
3460.303711
 20
1501.236328
 30
0.0
 40
5.0
 41
0.0
 71
     9
 72
     5
  1
\f|b0|i0|c177|p0;\W0.9;   
 73
     2
 44
1.0
  0
MTEXT
  5
7A
330
A
100
AcDbEntity
  8
LEVEL0
  6
SOLID
 62
     7
370
     9
100
AcDbMText
 10
3529.444336
 20
-120.159363
 30
0.0
 40
5.0
 41
0.0
 71
     9
 72
     5
  1
\f|b0|i0|c177|p0;\W0.9; 
 73
     2
 44
1.0
  0
MTEXT
  5
7B
330
A
100
AcDbEntity
  8
LEVEL0
  6
SOLID
 62
     7
370
     9
100
AcDbMText
 10
3238.881836
 20
-123.639847
 30
0.0
 40
5.0
 41
0.0
 71
     9
 72
     5
  1
\f|b0|i0|c177|p0;\W0.9; 
 73
     2
 44
1.0
  0
MTEXT
  5
7C
330
A
100
AcDbEntity
  8
LEVEL0
  6
SOLID
 62
     7
370
     9
100
AcDbMText
 10
5291.625977000002
 20
147.419586
 30
0.0
 40
5.0
 41
0.0
 71
     9
 72
     5
  1
\f|b0|i0|c177|p0;\W0.9; 
 73
     2
 44
1.0
  0
MTEXT
  5
7D
330
A
100
AcDbEntity
  8
LEVEL0
  6
SOLID
 62
     7
370
     9
100
AcDbMText
 10
5001.063477000002
 20
143.939117
 30
0.0
 40
5.0
 41
0.0
 71
     9
 72
     5
  1
\f|b0|i0|c177|p0;\W0.9; 
 73
     2
 44
1.0
  0
MTEXT
  5
7E
330
A
100
AcDbEntity
  8
LEVEL0
  6
SOLID
 62
     7
370
     9
100
AcDbMText
 10
6223.058594000001
 20
1095.766602
 30
0.0
 40
41.400002
 41
0.0
 71
     1
 72
     5
  1
\f|b0|i0|c177|p0;\W0.9; 
 73
     2
 44
1.0
  0
MTEXT
  5
7F
330
A
100
AcDbEntity
  8
LEVEL0
  6
SOLID
 62
     7
370
     9
100
AcDbMText
 10
9457.084961000001
 20
1063.785645
 30
0.0
 40
41.400002
 41
0.0
 71
     1
 72
     5
  1
\f|b0|i0|c177|p0;\W0.9;  
 73
     2
 44
1.0
  0
LINE
  5
87
330
A
100
AcDbEntity
  8
LEVEL0
  6
SOLID
 62
     7
370
     9
100
AcDbLine
 10
11542.18469
 20
3052.565636
 30
0.0
 11
11558.036606
 21
3127.916262
 31
0.0
  0
LINE
  5
88
330
A
100
AcDbEntity
  8
LEVEL0
  6
SOLID
 62
     7
370
     9
100
AcDbLine
 10
11556.079447
 20
3128.328
 30
0.0
 11
11559.993765
 21
3127.504524
 31
0.0
  0
LINE
  5
89
330
A
100
AcDbEntity
  8
LEVEL0
  6
SOLID
 62
     7
370
     9
100
AcDbLine
 10
11559.993765
 20
3127.504524
 30
0.0
 11
11560.507035
 21
3139.659216
 31
0.0
  0
LINE
  5
8A
330
A
100
AcDbEntity
  8
LEVEL0
  6
SOLID
 62
     7
370
     9
100
AcDbLine
 10
11560.507035
 20
3139.659216
 30
0.0
 11
11556.079447
 21
3128.328
 31
0.0
  0
LINE
  5
8B
330
A
100
AcDbEntity
  8
LEVEL0
  6
SOLID
 62
     7
370
     9
100
AcDbLine
 10
11599.158698
 20
2997.894059
 30
0.0
 11
11678.47806
 21
3062.022358
 31
0.0
  0
LINE
  5
8C
330
A
100
AcDbEntity
  8
LEVEL0
  6
SOLID
 62
     7
370
     9
100
AcDbLine
 10
11677.220642
 20
3063.57764
 30
0.0
 11
11679.735478
 21
3060.467077
 31
0.0
  0
LINE
  5
8D
330
A
100
AcDbEntity
  8
LEVEL0
  6
SOLID
 62
     7
370
     9
100
AcDbLine
 10
11679.735478
 20
3060.467077
 30
0.0
 11
11687.80975
 21
3069.566864
 31
0.0
  0
LINE
  5
8E
330
A
100
AcDbEntity
  8
LEVEL0
  6
SOLID
 62
     7
370
     9
100
AcDbLine
 10
11687.80975
 20
3069.566864
 30
0.0
 11
11677.220642
 21
3063.57764
 31
0.0
  0
LINE
  5
8F
330
A
100
AcDbEntity
  8
LEVEL0
  6
SOLID
 62
     7
370
     9
100
AcDbLine
 10
11625.271209
 20
2768.72114
 30
0.0
 11
11706.602279
 21
2711.401797
 31
0.0
  0
LINE
  5
90
330
A
100
AcDbEntity
  8
LEVEL0
  6
SOLID
 62
     7
370
     9
100
AcDbLine
 10
11707.754426
 20
2713.036593
 30
0.0
 11
11705.450131
 21
2709.767002
 31
0.0
  0
LINE
  5
91
330
A
100
AcDbEntity
  8
LEVEL0
  6
SOLID
 62
     7
370
     9
100
AcDbLine
 10
11705.450131
 20
2709.767002
 30
0.0
 11
11716.411051
 21
2704.488912
 31
0.0
  0
LINE
  5
92
330
A
100
AcDbEntity
  8
LEVEL0
  6
SOLID
 62
     7
370
     9
100
AcDbLine
 10
11716.411051
 20
2704.488912
 30
0.0
 11
11707.754426
 21
2713.036593
 31
0.0
  0
LINE
  5
93
330
A
100
AcDbEntity
  8
LEVEL0
  6
SOLID
 62
     7
370
     9
100
AcDbLine
 10
11290.706732
 20
2652.97666
 30
0.0
 11
11290.706732
 21
2606.635299000001
 31
0.0
  0
LINE
  5
94
330
A
100
AcDbEntity
  8
LEVEL0
  6
SOLID
 62
     7
370
     9
100
AcDbLine
 10
11630.584294
 20
2652.97666
 30
0.0
 11
11630.584294
 21
2606.635299000001
 31
0.0
  0
LINE
  5
95
330
A
100
AcDbEntity
  8
LEVEL0
  6
SOLID
 62
     7
370
     9
100
AcDbLine
 10
11302.706732
 20
2607.885299
 30
0.0
 11
11618.584294
 21
2607.885299
 31
0.0
  0
LINE
  5
96
330
A
100
AcDbEntity
  8
LEVEL0
  6
SOLID
 62
     7
370
     9
100
AcDbLine
 10
11302.706732
 20
2609.885299
 30
0.0
 11
11302.706732
 21
2605.885299
 31
0.0
  0
LINE
  5
97
330
A
100
AcDbEntity
  8
LEVEL0
  6
SOLID
 62
     7
370
     9
100
AcDbLine
 10
11302.706732
 20
2605.885299
 30
0.0
 11
11290.706732
 21
2607.885299
 31
0.0
  0
LINE
  5
98
330
A
100
AcDbEntity
  8
LEVEL0
  6
SOLID
 62
     7
370
     9
100
AcDbLine
 10
11290.706732
 20
2607.885299
 30
0.0
 11
11302.706732
 21
2609.885299
 31
0.0
  0
LINE
  5
99
330
A
100
AcDbEntity
  8
LEVEL0
  6
SOLID
 62
     7
370
     9
100
AcDbLine
 10
11618.584294
 20
2609.885299
 30
0.0
 11
11618.584294
 21
2605.885299
 31
0.0
  0
LINE
  5
9A
330
A
100
AcDbEntity
  8
LEVEL0
  6
SOLID
 62
     7
370
     9
100
AcDbLine
 10
11618.584294
 20
2605.885299
 30
0.0
 11
11630.584294
 21
2607.885299
 31
0.0
  0
LINE
  5
9B
330
A
100
AcDbEntity
  8
LEVEL0
  6
SOLID
 62
     7
370
     9
100
AcDbLine
 10
11630.584294
 20
2607.885299
 30
0.0
 11
11618.584294
 21
2609.885299
 31
0.0
  0
LINE
  5
9C
330
A
100
AcDbEntity
  8
LEVEL0
  6
SOLID
 62
     7
370
     9
100
AcDbLine
 10
11185.770973
 20
2761.64905
 30
0.0
 11
11185.770973
 21
2570.860672
 31
0.0
  0
LINE
  5
9D
330
A
100
AcDbEntity
  8
LEVEL0
  6
SOLID
 62
     7
370
     9
100
AcDbLine
 10
11735.580715
 20
2757.109807
 30
0.0
 11
11735.580715
 21
2570.860672
 31
0.0
  0
LINE
  5
9E
330
A
100
AcDbEntity
  8
LEVEL0
  6
SOLID
 62
     7
370
     9
100
AcDbLine
 10
11197.770973
 20
2572.110672
 30
0.0
 11
11723.580715
 21
2572.110672
 31
0.0
  0
LINE
  5
9F
330
A
100
AcDbEntity
  8
LEVEL0
  6
SOLID
 62
     7
370
     9
100
AcDbLine
 10
11197.770973
 20
2574.110672
 30
0.0
 11
11197.770973
 21
2570.110672
 31
0.0
  0
LINE
  5
A0
330
A
100
AcDbEntity
  8
LEVEL0
  6
SOLID
 62
     7
370
     9
100
AcDbLine
 10
11197.770973
 20
2570.110672
 30
0.0
 11
11185.770973
 21
2572.110672
 31
0.0
  0
LINE
  5
A1
330
A
100
AcDbEntity
  8
LEVEL0
  6
SOLID
 62
     7
370
     9
100
AcDbLine
 10
11185.770973
 20
2572.110672
 30
0.0
 11
11197.770973
 21
2574.110672
 31
0.0
  0
LINE
  5
A2
330
A
100
AcDbEntity
  8
LEVEL0
  6
SOLID
 62
     7
370
     9
100
AcDbLine
 10
11723.580715
 20
2574.110672
 30
0.0
 11
11723.580715
 21
2570.110672
 31
0.0
  0
LINE
  5
A3
330
A
100
AcDbEntity
  8
LEVEL0
  6
SOLID
 62
     7
370
     9
100
AcDbLine
 10
11723.580715
 20
2570.110672
 30
0.0
 11
11735.580715
 21
2572.110672
 31
0.0
  0
LINE
  5
A4
330
A
100
AcDbEntity
  8
LEVEL0
  6
SOLID
 62
     7
370
     9
100
AcDbLine
 10
11735.580715
 20
2572.110672
 30
0.0
 11
11723.580715
 21
2574.110672
 31
0.0
  0
LINE
  5
A5
330
A
100
AcDbEntity
  8
LEVEL0
  6
SOLID
 62
     7
370
     9
100
AcDbLine
 10
11467.645513
 20
3150.049699
 30
0.0
 11
11810.233818
 21
3150.049699
 31
0.0
  0
LINE
  5
A6
330
A
100
AcDbEntity
  8
LEVEL0
  6
SOLID
 62
     7
370
     9
100
AcDbLine
 10
11637.584294
 20
2659.97666
 30
0.0
 11
11810.233818
 21
2659.97666
 31
0.0
  0
LINE
  5
A7
330
A
100
AcDbEntity
  8
LEVEL0
  6
SOLID
 62
     7
370
     9
100
AcDbLine
 10
11808.983818
 20
3138.049699
 30
0.0
 11
11808.983818
 21
2671.97666
 31
0.0
  0
LINE
  5
A8
330
A
100
AcDbEntity
  8
LEVEL0
  6
SOLID
 62
     7
370
     9
100
AcDbLine
 10
11806.983818
 20
3138.049699
 30
0.0
 11
11810.983818
 21
3138.049699
 31
0.0
  0
LINE
  5
A9
330
A
100
AcDbEntity
  8
LEVEL0
  6
SOLID
 62
     7
370
     9
100
AcDbLine
 10
11810.983818
 20
3138.049699
 30
0.0
 11
11808.983818
 21
3150.049699
 31
0.0
  0
LINE
  5
AA
330
A
100
AcDbEntity
  8
LEVEL0
  6
SOLID
 62
     7
370
     9
100
AcDbLine
 10
11808.983818
 20
3150.049699
 30
0.0
 11
11806.983818
 21
3138.049699
 31
0.0
  0
LINE
  5
AB
330
A
100
AcDbEntity
  8
LEVEL0
  6
SOLID
 62
     7
370
     9
100
AcDbLine
 10
11806.983818
 20
2671.97666
 30
0.0
 11
11810.983818
 21
2671.97666
 31
0.0
  0
LINE
  5
AC
330
A
100
AcDbEntity
  8
LEVEL0
  6
SOLID
 62
     7
370
     9
100
AcDbLine
 10
11810.983818
 20
2671.97666
 30
0.0
 11
11808.983818
 21
2659.97666
 31
0.0
  0
LINE
  5
AD
330
A
100
AcDbEntity
  8
LEVEL0
  6
SOLID
 62
     7
370
     9
100
AcDbLine
 10
11808.983818
 20
2659.97666
 30
0.0
 11
11806.983818
 21
2671.97666
 31
0.0
  0
ARC
  5
AE
330
A
100
AcDbEntity
  8
LEVEL0
  6
SOLID
 62
     7
370
     9
100
AcDbCircle
 10
11739.323211
 20
2659.97666
 30
0.0
 40
227.259228
100
AcDbArc
 50
95.03008499999998
 51
176.974252
  0
LINE
  5
AF
330
A
100
AcDbEntity
  8
LEVEL0
  6
SOLID
 62
     7
370
     9
100
AcDbLine
 10
11719.274695
 20
2888.356899
 30
0.0
 11
11719.520088
 21
2884.364433
 31
0.0
  0
LINE
  5
B0
330
A
100
AcDbEntity
  8
LEVEL0
  6
SOLID
 62
     7
370
     9
100
AcDbLine
 10
11719.520088
 20
2884.364433
 30
0.0
 11
11731.374789
 21
2887.096847
 31
0.0
  0
LINE
  5
B1
330
A
100
AcDbEntity
  8
LEVEL0
  6
SOLID
 62
     7
370
     9
100
AcDbLine
 10
11731.374789
 20
2887.096847
 30
0.0
 11
11719.274695
 21
2888.356899
 31
0.0
  0
LINE
  5
B2
330
A
100
AcDbEntity
  8
LEVEL0
  6
SOLID
 62
     7
370
     9
100
AcDbLine
 10
11514.380106
 20
2671.919674
 30
0.0
 11
11510.3815
 21
2672.025280000001
 31
0.0
  0
LINE
  5
B3
330
A
100
AcDbEntity
  8
LEVEL0
  6
SOLID
 62
     7
370
     9
100
AcDbLine
 10
11510.3815
 20
2672.025280000001
 30
0.0
 11
11512.063984
 21
2659.97666
 31
0.0
  0
LINE
  5
B4
330
A
100
AcDbEntity
  8
LEVEL0
  6
SOLID
 62
     7
370
     9
100
AcDbLine
 10
11512.063984
 20
2659.97666
 30
0.0
 11
11514.380106
 21
2671.919674
 31
0.0
  0
LINE
  5
B5
330
A
100
AcDbEntity
  8
LEVEL0
  6
SOLID
 62
     7
370
     9
100
AcDbLine
 10
11453.645513
 20
2659.97666
 30
0.0
 11
11439.772735
 21
2659.97666
 31
0.0
  0
ARC
  5
BF
330
A
100
AcDbEntity
  8
LEVEL0
  6
SOLID
 62
     7
370
     9
100
AcDbCircle
 10
11630.584294
 20
2764.97666
 30
0.0
 40
105.0
100
AcDbArc
 50
270.0
 51
2.004337
  0
LINE
  5
C0
330
A
100
AcDbEntity
  8
LEVEL0
  6
SOLID
 62
     7
370
     9
100
AcDbLine
 10
11735.520053
 20
2768.64905
 30
0.0
 11
11728.833014
 21
2959.726133
 31
0.0
  0
LINE
  5
C1
330
A
100
AcDbEntity
  8
LEVEL0
  6
SOLID
 62
     7
370
     9
100
AcDbLine
 10
11290.706732
 20
2659.97666
 30
0.0
 11
11630.584294
 21
2659.97666
 31
0.0
  0
ARC
  5
C2
330
A
100
AcDbEntity
  8
LEVEL0
  6
SOLID
 62
     7
370
     9
100
AcDbCircle
 10
11290.706732
 20
2764.97666
 30
0.0
 40
105.0
100
AcDbArc
 50
177.995663
 51
270.0
  0
LINE
  5
C3
330
A
100
AcDbEntity
  8
LEVEL0
  6
SOLID
 62
     7
370
     9
100
AcDbLine
 10
11185.770973
 20
2768.64905
 30
0.0
 11
11192.458011
 21
2959.726133
 31
0.0
  0
ARC
  5
C4
330
A
100
AcDbEntity
  8
LEVEL0
  6
SOLID
 62
     7
370
     9
100
AcDbCircle
 10
11377.344825
 20
2953.255733
 30
0.0
 40
185.0
100
AcDbArc
 50
106.117099
 51
177.995663
  0
ARC
  5
C5
330
A
100
AcDbEntity
  8
LEVEL0
  6
SOLID
 62
     7
370
     9
100
AcDbCircle
 10
11460.645513
 20
2664.976660000001
 30
0.0
 40
485.0730389999998
100
AcDbArc
 50
73.882901
 51
106.117099
  0
ARC
  5
C6
330
A
100
AcDbEntity
  8
LEVEL0
  6
SOLID
 62
     7
370
     9
100
AcDbCircle
 10
11543.9462
 20
2953.255733
 30
0.0
 40
185.0
100
AcDbArc
 50
2.004337
 51
73.882901
  0
MTEXT
  5
D3
330
A
100
AcDbEntity
  8
0
100
AcDbMText
 10
11420.33810720952
 20
3208.163516258893
 30
0.0
 40
12.0
 41
8538.712332812975
 71
     1
 72
     5
  1
{\fSimSun|b0|i0|c134|p2;861 template}
 73
     1
 44
1.0
  0
ENDSEC
  0
SECTION
  2
OBJECTS
  0
DICTIONARY
  5
19
330
0
100
AcDbDictionary
281
     1
  3
ACAD_COLOR
350
84
  3
ACAD_GROUP
350
1A
  3
ACAD_LAYOUT
350
1E
  3
ACAD_MATERIAL
350
83
  3
ACAD_MLINESTYLE
350
1B
  3
ACAD_PLOTSETTINGS
350
22
  3
ACAD_PLOTSTYLENAME
350
1F
  0
DICTIONARY
  5
84
102
{ACAD_REACTORS
330
19
102
}
330
19
100
AcDbDictionary
281
     1
  0
DICTIONARY
  5
1A
102
{ACAD_REACTORS
330
19
102
}
330
19
100
AcDbDictionary
281
     1
  0
DICTIONARY
  5
1E
102
{ACAD_REACTORS
330
19
102
}
330
19
100
AcDbDictionary
281
     1
  3
Layout1
350
21
  3
Model
350
20
  0
DICTIONARY
  5
83
102
{ACAD_REACTORS
330
19
102
}
330
19
100
AcDbDictionary
281
     1
  0
DICTIONARY
  5
1B
102
{ACAD_REACTORS
330
19
102
}
330
19
100
AcDbDictionary
281
     1
  3
Standard
350
1C
  0
DICTIONARY
  5
22
102
{ACAD_REACTORS
330
19
102
}
330
19
100
AcDbDictionary
281
     1
  0
ACDBDICTIONARYWDFLT
  5
1F
102
{ACAD_REACTORS
330
19
102
}
330
19
100
AcDbDictionary
281
     1
  3
Normal
350
1D
100
AcDbDictionaryWithDefault
340
1D
  0
LAYOUT
  5
21
102
{ACAD_REACTORS
330
1E
102
}
330
1E
100
AcDbPlotSettings
  1

  2

  4

  6

 40
0.0
 41
0.0
 42
0.0
 43
0.0
 44
0.0
 45
0.0
 46
0.0
 47
0.0
 48
0.0
 49
0.0
140
0.0
141
0.0
142
1.0
143
1.0
 70
     0
 72
     0
 73
     0
 74
     0
  7

 75
     0
147
1.0
 76
     0
 77
     2
 78
   300
148
0.0
149
0.0
100
AcDbLayout
  1
Layout1
 70
     0
 71
     1
 10
0.0
 20
0.0
 11
12.0
 21
9.0
 12
0.0
 22
0.0
 32
0.0
 14
1.000000000000000E+20
 24
1.000000000000000E+20
 34
1.000000000000000E+20
 15
-1.000000000000000E+20
 25
-1.000000000000000E+20
 35
-1.000000000000000E+20
146
0.0
 13
0.0
 23
0.0
 33
0.0
 16
1.0
 26
0.0
 36
0.0
 17
0.0
 27
1.0
 37
0.0
 76
     0
330
B
  0
LAYOUT
  5
20
102
{ACAD_REACTORS
330
1E
102
}
330
1E
100
AcDbPlotSettings
  1

  2
Adobe PDF
  4
A4
  6

 40
3.174999952316284
 41
3.174999952316284
 42
3.175003051757812
 43
3.17498779296875
 44
209.9098358154297
 45
297.0318298339844
 46
0.0
 47
0.0
 48
0.0
 49
0.0
140
0.0
141
0.0
142
1.0
143
1.0
 70
 11264
 72
     0
 73
     1
 74
     0
  7

 75
     0
147
1.0
 76
     0
 77
     2
 78
   300
148
-281048.2652527587
149
-61959.94658389287
100
AcDbLayout
  1
Model
 70
     0
 71
     0
 10
0.0
 20
0.0
 11
0.0
 21
0.0
 12
0.0
 22
0.0
 32
0.0
 14
0.0
 24
0.0
 34
0.0
 15
0.0
 25
0.0
 35
0.0
146
0.0
 13
0.0
 23
0.0
 33
0.0
 16
0.0
 26
0.0
 36
0.0
 17
0.0
 27
0.0
 37
0.0
 76
     0
330
A
  0
MLINESTYLE
  5
1C
102
{ACAD_REACTORS
330
1B
102
}
330
1B
100
AcDbMlineStyle
  2
STANDARD
 70
     0
  3

 62
     0
 51
90.0
 52
90.0
 71
     2
 49
0.5
 62
   256
  6
BYLAYER
 49
-0.5
 62
   256
  6
BYLAYER
  0
ACDBPLACEHOLDER
  5
1D
102
{ACAD_REACTORS
330
1F
102
}
330
1F
  0
ENDSEC
  0
EOF
